Your One-Stop Source For
Music Lyrics
Bass and Guitar Tabs
and More...
Music Lyrics Bass and Guitar Tabs

 

The Tabs Are Below

Learn To Read Tab
Chords Handbook
Corrections & Additions
Get Official Tab
Sublime tabs @ 911Tabs

 

Song: Date Rape

Band: Sublime

Album: 40 Oz. to Freedom

Tabbed by: Rob MacGuffie (SubDubLBC@aol.com)

 

 

Intro:

|----------------------------------------------------------------|

|-------------------9--7-6--10-9-8---------------------6-7-9-7-6-|

|-7-7-7-8-8-8-7---7------------------7-7-7-8-8-8-7---7-----------|

|----------------------------------------------------------------|

 

|-------------------------------|

|-------------------------------|

|-------------------------------|

|-5-5-5-6-6-6-5/--0-0-0-1-1-1-0-|

 

|---------------------------------------|

|---------------------------------------|

|-10-10----10----10-----9-9----8-8----7-|

|-------10----10-----10-----9------8----|

Verse 1:

|-----------------------------------------------------|

|---7/9-9-----------9-9--------7/9-9-----------9-9----|

|-7-------10---7-10-----10---7-------10---7-10-----10-|

|-----------------------------------------------------|

 

|--------------------------------------------------|

|--------------------------------------------------|

|------7-7------------7-7-------6-6--9-9-----------|

|-5--8-----8---5--8-8-----8---7----------7--8-8--7-|

 

|-----------------------------------------------------|

|---7/9-9-----------9-9--------7/9-9-----------9-9----|

|-7-------10---7-10-----10---7-------10---7-10-----10-|

|-----------------------------------------------------|

 

|----------------------------------------------------|

|----------------------------------------------------|

|------7-7------------7-7-------6-6--9-9-------------|

|-5--8-----8---5--8-8-----8---7----------7--8-8--7-5-|

 

|-----------------------------------------------------|

|---7/9-9-----------9-9--------7/9-9-----------9-9----|

|-7-------10---7-10-----10---7-------10---7-10-----10-|

|-----------------------------------------------------|

 

|-------------------------------------------------------------|

|-------------------------------------------------------------|

|-----6-6--9-9-------6-6--9-9------------7-7------------7-7---|

|---7----------7---7----------7---5--8-8-----8---5--8-8-----8-|

 

|-----------------------------------------------------|

|---7/9-9-----------9-9--------7/9-9-----------9-9----|

|-7-------10---7-10-----10---7-------10---7-10-----10-|

|-----------------------------------------------------|

 

|------------------------------------------------------------|

|------------------------------------------------------------|

|-------------------------------------------7-7-7-7--7-7-7-7-|

|-7-7--7-7-7--7-7-7--7-7-7--8-8-8-8--7-7-7-------------------|

|---------------------------------------------------|

|---------------------------------------------------|

|-----------------------------0h2-------------------|

|--8-8-8-8--7-7--0-0-0-0--0-0------0-0-0-0--0-0-0-0-|

 

|------------------------------------------------|

|-----------------------------------------7------|

|-7----7----7----7-7------7----7----7---7--------|

|----7----7----7-----7-------7----7---7------6/7-|

 

|------------------------------------------------------|

|------------------------------------------------------|

|------------------------------10-10-10-10-10-10-10-10-|

|-7--7-7-7-7-7--8--8-8-8-8h10--------------------------|

 

|-----------------------------------------------------------------|

|-----------------------------------------------------------------|

|---------------------------------------7--7--7--7---7--7--7-0--7-|

|-10-10-10-10-10-10-10-10---7-7-7-7-7-----------------------------|

 

|--------------------------------------------------------|

|--------------------------------------------------------|

|-7-----------------7-7----------------7-7---------------|

|----7-7--8-8--5-5------7-7--8-8--5-5------7-7--8-8--5-5-|

|---------------------------------------------------|

|---------------------------------------------------|

|-7-7-----------------------------------------------|

|-----7-7--8-8--5-5---7--7-7-7--7-7-7--7-7-7---8--7-|

 

|--------------------------------|

|--------------------------------|

|--------------------------------|

|-7--7-7-7--7-7-7--7/19---20--19-|

 

|-------------------------------------------|

|-------------------------------------------|

|-------------------------------------------|

|-19--19-19-19--19-19-19--19-19-19---20--19-|

 

Guitar Solo:

|-----------------------------------------------------|

|---7/9-9-----------9-9--------7/9-9-----------9-9----|

|-7-------10---7-10-----10---7-------10---7-10-----10-|

|-----------------------------------------------------|

 

|-----------------------------------------------------|

|---7/9-9-----------9-9--------7/9-9-----------9-9----|

|-7-------10---7-10-----10---7-------10---7-10-----10-|

|-----------------------------------------------------|

 

|-------------------------------------------------------------|

|-------------------------------------------------------------|

|-----6-6--9-9-------6-6--9-9------------7-7------------7-7---|

|---7----------7---7----------7---5--8-8-----8---5--8-8-----8-|

 

Bridge:

|----------------------------------------------------------------|

|-------------------9--7-6--10-9-8---------------------6-7-9-7-6-|

|-7-7-7-8-8-8-7---7------------------7-7-7-8-8-8-7---7-----------|

|----------------------------------------------------------------|

 

|-------------------------------|

|-------------------------------|

|-------------------------------|

|-5-5-5-6-6-6-5/--0-0-0-1-1-1-0-|

 

|---------------------------------------|

|---------------------------------------|

|-10-10----10----10-----9-9----8-8----7-|

|-------10----10-----10-----9------8----|

Verse 2:

|-----------------------------------------------------|

|---7/9-9-----------9-9--------7/9-9-----------9-9----|

|-7-------10---7-10-----10---7-------10---7-10-----10-|

|-----------------------------------------------------|

 

|----------------------------------------------------|

|----------------------------------------------------|

|------7-7------------7-7-------6-6--9-9-------------|

|-5--8-----8---5--8-8-----8---7----------7--8-8--7-5-|

 

|--------------------------------------------------------|

|--------------------------------------------------------|

|-7--7---7--7--7---7-------------------------------------|

|----------------7------5-5-5-5--5-5-5-5---7--7---8-8--7-|

 

|-----------------------------------------------------|

|---7/9-9-----------9-9--------7/9-9-----------9-9----|

|-7-------10---7-10-----10---7-------10---7-10-----10-|

|-----------------------------------------------------|

 

|---------------------------------------------------------|

|---------------------------------------------------------|

|-----6-6--9-9-------6-6--9-9------------7-7------------5-|

|---7----------7---7----------7---5--8-8-----8---5--7-8---|

 

|-----------------------------------------------------|

|---7/9-9-----------9-9--------7/9-9-----------9-9----|

|-7-------10---7-10-----10---7-------10---7-10-----10-|

|-----------------------------------------------------|

 

|------------------------------------------------------------|

|------------------------------------------------------------|

|-------------------------------------------7-7---7--7-7---7-|

|-7-7--7-7-7--7-7-7--7-7-7--8-8-8-8--7-7-7------7--------7---|

|---------------------------------------------------|

|---------------------------------------------------|

|---------------------------------------------------|

|--8-8-8-8--7-7--0-0-0-0--0-0-0-0--0-0-0-0--0-0-0-0-|

 

|------------------------------------------------|

|-----------------------------------------7------|

|-7----7----7----7-7------7----7----7---7--------|

|----7----7----7-----7-------7----7---7------6/7-|

 

|------------------------------------------------------|

|------------------------------------------------------|

|------------------------------10-10-10-10-10-10-10-10-|

|-7--7-7-7-7-7--8--8-8-8-8h10--------------------------|

 

|-----------------------------------------------------------------|

|-----------------------------------------------------------------|

|---------------------------------------7--7--7--7---7--7--7-7--7-|

|-10-10-10-10-10-10-10-10---7-7-7-7-7-----------------------------|

 

|--------------------------------------------------------|

|--------------------------------------------------------|

|-7-----------------7-7----------------7-7---------------|

|----7-7--8-8--5-5------7-7--8-8--5-5------7-7--8-8--5-5-|

|---------------------------------------------------|

|---------------------------------------------------|

|-7-7-----------------------------------------------|

|-----7-7--8-8--5-5---7--7-7-7--7-7-7--7-7-7---8--7-|

 

|--------------------------------|

|--------------------------------|

|--------------------------------|

|-7--7-7-7--7-7-7--7/19---20--19-|

 

|-------------------------------------------|

|-------------------------------------------|

|-------------------------------------------|

|-19--19-19-19--19-19-19--19-19-19---20--19-|

 

|--------------------------------------------------------|

|--------------------------------------------------------|

|-7-----------------7-7----------------7-7---------------|

|----7-7--8-8--5-5------7-7--8-8--5-5------7-7--8-8--5-5-|

|---------------------------------------------------|

|---------------------------------------------------|

|-7-7-----------------------------------------------|

|-----7-7--8-8--5-5---7--7-7-7--7-7-7--7-7-7---8--7-|

 

|----------------------------------------------------------------|

|----------------------------------------------------------------|

|----------------------------------------------------------------|

|-7--7-7-7--7-7-7--7-7-7---8--7----7--7-7-7--7-7-7--7-7-7---8--7-|

Outro:

|----------------------------------|

|-------9---------9----------------|

|-7--10-----7--10-------6--9-------|

|---------------------7--------7-7-|

 

|-------------------------------------|

|-----------------------12--10---9----|

|--7--10-----7--10---10------------10-|

|8---------8--------------------------|

 

|-------------------------------------------------------------------|

|-------9---------9------------------------------------9--12--9-----|

|-7--10-----7--10-------6--9-----------7--10--------10-----------10-|

|---------------------7--------7-7---8---------8-8------------------|

 

|--------------------------------------------------------|

|--------------------------------------------------------|

|-7-7-7-7--7-7-7-7----------------------------------7/10-|

|-------------------7-7-7-7--7-7-7-7---8-8-8-8--8-8------|

 

|--------------------------------------------------------|

|-------------------------------------7/9-9-9-9--9-9-9-9-|

|-10-10-10--10-10-10-10/--\7-7-7-7--7--------------------|

|--------------------------------------------------------|

 

|------------------------------------------------|

|-10-10-10-10--10-10-10-10--------9--------------|

|---------------------------10-10---10--10-10-10-|

|------------------------------------------------|

 

|---------------------------------------------------------|

|---------------------------------------------------------|

|-7----------------7---------------7----------------7---7-|

|----7---8---5--------7---8---5-------7---8---5-----------|

 

Return to my to my Sublime bass tabs page

The Tablature is Copyright its respective owners.

Sign Up For My Newsletter
Subscribe | Unsubscribe

Site Map | Disclaimer | Privacy Policy | Media Kit | Submissions/Corrections

Website © 2000-2014 mattsmusicpage.com. All rights reserved.

Legal & DMCA: Matt's Music Page has been providing lyrics and tabs in a legal way, paying royalties each year to a few organizations. Then, all lyrics and tabs were removed from the site. Now, there's a new owner to the site, which purchased it August 26, 2014, and he is in negotiation to obtain licensing from BMI at the moment. If you have a specific DMCA request -- please do not hesitate to contact me via the contact button on top. I will do my very best to keep this site fully legal.

Get our toolbar!