Your One-Stop Source For
Music Lyrics
Bass and Guitar Tabs
and More...
>Music Lyrics Bass and Guitar Tabs

 

The Tabs Are Below

Learn To Read Tab
Chords Handbook
Corrections & Additions
Get Official Tab
Stroke 9 tabs @ 911Tabs

Two guitars arranged for one here, just for all those bands like mine

with one guitar player.

Intro and chorus

e|------------------------------------------------------------------|

B|-----7-7-7-7-7-------7-7-7-7-7----3h5h7-3h5h7-3h5h7-7-7-7p5-------|

G|7-7--------------7-7----------------------------------------------|

D|7-7--------------7-7------------5---------------------------------|

A|5-5--------------5-5------------5---------------------------------|

E|--------------------------------3---------------------------------|

 

Verse

D G

 

Part where he sings, "But I'm really just a sensitive artist" is:

D A G

 

Solo

E--------------------------------

B-77--77--555----------8888------

G---77--77---5----7777-----------

D--------------777---------------

A--------------------------------

E--------------------------------

 

Just Play that 4 times

 

 

 

Return to my Stroke 9 tabs page

The Tablature is Copyright its respective owners.

Sign Up For My Newsletter
Subscribe | Unsubscribe

Site Map | Disclaimer | Privacy Policy | Media Kit | Submissions/Corrections

Website © 2000-2014 mattsmusicpage.com. All rights reserved.

Legal & DMCA: Matt's Music Page has been providing lyrics and tabs in a legal way, paying royalties each year to a few organizations. Then, all lyrics and tabs were removed from the site. Now, there's a new owner to the site, which purchased it August 26, 2014, and he is in negotiation to obtain licensing from BMI at the moment. If you have a specific DMCA request -- please do not hesitate to contact me via the contact button on top. I will do my very best to keep this site fully legal.

Get our toolbar!

 

NEW IN BOX Vintage 1988-N.Y.STOCK EXCHANGE-BULLS VS BEARS MUSIC BOX-EX COND
$18.0
NEW IN BOX Vintage 1988-N.Y.STOCK EXCHANGE-BULLS VS BEARS MUSIC BOX-EX COND picture


"Let It Go" Wooden Vintage Wind up Music Box With Sankyo Musical Movement
$19.98


VINTAGE MUSICAL CAROUSEL WITH LIGHTS CERAMIC WHITE
$79.0
VINTAGE MUSICAL CAROUSEL WITH LIGHTS CERAMIC WHITE   picture


Vintage VALENTINE Musical Snowglobe ( GARDEN OF LOVE ) 7" TALL & 4-1/2 WIDE
$12.99
Vintage VALENTINE  Musical Snowglobe  ( GARDEN OF LOVE )  7


Vintage Cherished Teddies Musical Snowglobe Enesco "O Tannebaum" 1997
$9.99
Vintage Cherished Teddies Musical Snowglobe Enesco