Your One-Stop Source For
Music Lyrics
Bass and Guitar Tabs
and More...
Music Lyrics Bass and Guitar Tabs

 

The Tabs Are Below

Learn To Read Tab
Chords Handbook
Corrections & Additions
Get Official Tab
STP tabs @ 911Tabs

 

Wicked Garden

Stone Temple Pilots

 

 

 

intro:

G5 D5 A5

e:----3------------- at the end of e:------------

B:----3----2-------- the fourth time B:------------

G:----0----3----2--- X4 play this slide G:----9/14~~~~

D:----0----0----2--- D:----9/14~~~~

A:--------------0--- A:----9/14~~~~

E:----3------------- E:------------

 

 

 

riff 1 :

G5 A5

e:-------------------------------------

B:-------------------------------------

G:------------------------------------- many times

D:-5/7-------7-------7-7-------7-----5-

A:-5/7-------7-------7-7-------7-----5-

E:-3/5-(5-5)-5-(5-5)-5-5-(5-5)-5-(5)-3-

 

 

"(5-5)" means you have to palm mute those notes.

 

 

 

verse riff:

e:-------------------------------

B:-------------------------------

G:--------------------------7--6- X4

D:-5H7-7-7-7-7-7-7--7-7-7---7--7-

A:-0---0-0-0-0-0-0--0-0-0---0----

E:-------------------------------

 

 

 

pre chorus:

 

riff 1 X4

 

 

 

verse 2:

 

same as the first

 

 

 

pre chorus again:

 

same except that when you finish playing riff 1 the fourth

time,

don't go back to G5. go down to F#5, to start the chorus.

 

 

 

 

chorus:

F#5 D5 B5

e:-----------------------------------------------------------

B:------------3----3-3---------------------------------------

G:------------2----2-2-----4---4-4---4---4-4---4-4---4-4-4---

X2

D:--4---4-----0----0-0-----4---4-4---4---4-4---4-4---4-4-4-4-

A:--4---4----------------0-2---0-2---2---0-2---0-2---0-2-0-4-

E:--2---2---0----------------------------------------------2-

 

can you see just like a child ?

 

 

E7

e:--0--0-0-0-0-0--0--0--0-0-0-0-0--

B:--0--0-0-0-0-0--0--0--0-0-0-0-0-- many times ,i'm not sure

G:--1--1-1-1-1-1--1--1--1-1-1-1-1-- about the rhythm...

D:--0--0-0-0-0-0--0--0--0-0-0-0-0--

A:--2--2-2-2-2-2--2--2--2-2-2-2-2--

E:--0--0-0-0-0-0--0--0--0-0-0-0-0--

alive ehay ehay ehay ehay......

 

 

 

 

 

 

Then there is this heavy part:

G5 F#5 A5

e:---------------------------------------------------------------

B:---------------------------------------------------------------

G:---------------------------------------------------------------

D:--5---5-4---5---4-5---7--7------4-5---5-4---5---4-5---7--7--xx-

A:--5---5-4---5---4-5---7--7------4-5---5-4---5---4-5---7--7--xx-

E:--3---3-2---3---2-3---5--5----0-2-3---3-2---3---2-3---5--5--xx-

 

burn, burn burn............

(burn, burn,burn, )

 

 

 

 

riff 1

 

 

Verse 3:

 

pre chorus:

 

chorus:

 

heavy part:

 

 

and finally play the intro .... and that's it.

 

 

 

 

LYRICS

Can you see like a child?

Can you see what i want?

 

I wanna run through your wicked garden

Heard that's the the place to find you

'cause i'm alive, so alive now

I know the darkness blinds you

 

Can you see without eyes?

Can you speak without lies?

 

I wanna drink from your wicked fountain

I can drown your sorrows

I'm gonna burn, burn you to life now

Out of the chains that blind you

 

Can you see just like a child?

Can you see just what i want?

Can i bring you back to life?

Are you still alive?

 

Burn...burn, burn....

burn your wicked graden down

burn...burn, burn....

Burn your wicked garden to the ground....yeah.

 

 

Return to my to my STP tabs page

The Tablature is Copyright its respective owners.

Sign Up For My Newsletter
Subscribe | Unsubscribe

Site Map | Disclaimer | Privacy Policy | Media Kit | Submissions/Corrections

Website © 2000-2014 mattsmusicpage.com. All rights reserved.

Legal & DMCA: Matt's Music Page has been providing lyrics and tabs in a legal way, paying royalties each year to a few organizations. Then, all lyrics and tabs were removed from the site. Now, there's a new owner to the site, which purchased it August 26, 2014, and he is in negotiation to obtain licensing from BMI at the moment. If you have a specific DMCA request -- please do not hesitate to contact me via the contact button on top. I will do my very best to keep this site fully legal.

Get our toolbar!

 

BRAND NEW KEY OF C HOHNER MINI HARMONICA HARP KEYRING KEYCHAIN KEY RING CHAIN
$8.21
BRAND NEW KEY OF C HOHNER MINI HARMONICA HARP KEYRING KEYCHAIN KEY RING CHAIN picture


RISING SONS BAND *2X3 FRIDGE MAGNET* VOCALS GUITAR MANDOLIN DOBRO HARMONICA SONG
$3.99
RISING SONS BAND *2X3 FRIDGE MAGNET* VOCALS GUITAR MANDOLIN DOBRO HARMONICA SONG picture


Vtg Christmas Angel Baby Girl W Harmonica Boy W Book SET OF 2 W GOLD WINGS
$125.0
Vtg Christmas Angel Baby Girl W Harmonica Boy W Book SET OF 2 W GOLD WINGS  picture


Beautiful Hand Carved Jewelry Trinket Jewelry Box Harmonica Case Bone And Brass
$14.5
Beautiful Hand Carved Jewelry Trinket Jewelry Box Harmonica Case Bone And Brass picture


BRAND NEW* HOHNER BOB DYLAN SIGNATURE LIMITED EDITION HARMONICA COLLECTORS ITEM
$140.19
BRAND NEW* HOHNER BOB DYLAN SIGNATURE LIMITED EDITION HARMONICA COLLECTORS ITEM picture