Your One-Stop Source For
Music Lyrics
Bass and Guitar Tabs
and More...
Music Lyrics Bass and Guitar Tabs

 

The Tabs Are Below

Learn To Read Tab
Chords Handbook
Corrections & Additions
Get Official Tab
STP tabs @ 911Tabs

Author/Artist: Stone Temple Pilots

Title: Where The River Goes

Album: Core

Transcribed by: Liam Doorley

Email: irish8722@aol.com

Note: This is the rythym guitar part only, I haven't finished the solos yet but

they will come soon...if you can't wait email me or just play solos in the key

of E minor/G major.

 

Intro/Verse

------------------------------------------------------------------------------

-----------8--------8--------8------------------------------------------------

-xxxx------7--------7--------7------------------------------------------------

-xxxx------6--------6--------6------------------------------------------------

-xxxx-----------------------------------4-------------------------------------

-xxxx--3-0----0-3-0----0-3-0----0-3-5-3---------------------------------------

 

End of Intro

------------------------------------------------------------------------------

------------------------------------------------------------------------------

------------------------------------------------------------------------------

-7--x-x--8--------------------------------------------------------------------

-7--x-x--8--------------------------------------------------------------------

-5--x-x--6--------------------------------------------------------------------

 

Nowhere to run to, nowhere to hide...

------------------------------------------------------------------------------

------------------------------------------------------------------------------

------------------------------------------------------------------------------

-5/7-7-7-7/5-5/7-7-7----------------------------------------------------------

-5/7-7-7-7/5-5/7-7-7----------------------------------------------------------

-3/5-5-5-5/3-3/5-5-5----------------------------------------------------------

pm.. . .

 

I wanna be as big as a mountain, I wanna fly...

------------------------------------------------------------------------------

-5/7-----7-----5/7-8-------5/7-----7-----5/7-8-7------------------------------

-5/7-----7-----5/7-7-------5/7-----7-----5/7-7-7------------------------------

-5/7-7-7-7-7-7-5/7-7-7-6-5-5/7-7-7-7-7-7-5/7-7-7------------------------------

------------------------------------------------------------------------------

------------------------------------------------------------------------------

pm. . . . . . . . . . .

 

If I was stronger...

------------------------------------------------------------------------------

------------------------------------------------------------------------------

------------------------------------------------------------------------------

------------------------------------------------------------------------------

-7---7/3----3/7----7/3--/2/3/2/3----3/7-----/10/3-----3/7-----7/3-------------

------------------------------------------------------------------------------

 

Then:

If I was stronger...

------------------------------------------------------------------------------

------------------------------------------------------------------------------

------------------------------------------------------------------------------

-7---x-10---x-7---x-10--------------------------------------------------------

-7---x-10---x-7---x-9---------------------------------------------------------

-5---x-8----x-5---x-8---------------------------------------------------------

 

And that's it for now...I've covered all the parts.

 

Return to my to my STP tabs page

The Tablature is Copyright its respective owners.

Sign Up For My Newsletter
Subscribe | Unsubscribe

Site Map | Disclaimer | Privacy Policy | Media Kit | Submissions/Corrections

Website © 2000-2014 mattsmusicpage.com. All rights reserved.

Legal & DMCA: Matt's Music Page has been providing lyrics and tabs in a legal way, paying royalties each year to a few organizations. Then, all lyrics and tabs were removed from the site. Now, there's a new owner to the site, which purchased it August 26, 2014, and he is in negotiation to obtain licensing from BMI at the moment. If you have a specific DMCA request -- please do not hesitate to contact me via the contact button on top. I will do my very best to keep this site fully legal.

Get our toolbar!

 

1939 LYRIC THEATRE New York PHOTO
$5.83
1939 LYRIC THEATRE New York PHOTO picture


Star Spangled Banner or Marines Hymn lyrics signed by WWII Charles W. Lindberg
$10.0
Star Spangled Banner or Marines Hymn lyrics signed by WWII Charles W. Lindberg picture


OLD LARGE HISTORIC PHOTO OF THE LYRIC THEATRE, SYDNEY c1930s, WAR BONDS BOOTH
$7.42
OLD LARGE HISTORIC PHOTO OF THE LYRIC THEATRE, SYDNEY c1930s, WAR BONDS BOOTH picture


SONG OF REVOLUTION CARD SET WITH 13 MOST FAVORED COMMUNIST SONGS LYRICS + NOTES
$24.99
SONG OF REVOLUTION CARD SET WITH 13 MOST FAVORED COMMUNIST SONGS LYRICS + NOTES picture


OLD LARGE HISTORIC PHOTO OF THE LYRIC THEATRE, SYDNEY c1930s, WAR LOANS BOOTH
$7.42
OLD LARGE HISTORIC PHOTO OF THE LYRIC THEATRE, SYDNEY c1930s, WAR LOANS BOOTH picture