Your One-Stop Source For
Music Lyrics
Bass and Guitar Tabs
and More...
Music Lyrics Bass and Guitar Tabs

 

The Tabs Are Below

Learn To Read Tab
Chords Handbook
Corrections & Additions
Get Official Tab
STP tabs @ 911Tabs

 

Vasoline

Stone Temple Pilots

 

 

 

Heavy Distortion

|------------------------------------------------------------------------

|-10-----10-10-10----10-10-10------10-10--10-10-10-----\-----------------

|-7------7--7--7-----7--7--7-------7--7---7--7--7------\-----------------

|-8------8--8--8-----8--8--8-------8--8---8--8--8------\-----------------

|-6------6--6--6-----6--6--6-------6--6---6--6--6------\-----------------

|-6------6--6--6-----6--6--6-------6--6---6--6--6------\--1-3-3-1-3--1-3-

 

 

 

 

f=bend full step

|------------------------------------------------------------------------

|------------------------------------------------------------------------

|------------------------------------------------------------------------

|------------------------------------------------------------------------

|------------------------------------------------------------------0-0-0-

|-1-3--1-3--1-3--1-3--1-3--1-3--1-3--1-3--1-3--1-3--1-3--1-3--1-3f-1-1-1-

 

 

One time...(lyrics!)

 

Riff A (5 times) Riff B

|--------------------|---------------------------------------------------

|--------------------|---------------------------------------------------

|--------------------|---------------------------------------------------

|--------------------|-8-8-8-8-8-8-8-8-8-8-8-8-8-8-8-8-8-8-8-8-8-8-8-8\5-

|--------------------|-8-8-8-8-8-8-8-8-8-8-8-8-8-8-8-8-8-8-8-8-8-8-8-8\5-

|-1-3--1-3--1-3--1-3-|-6-6-6-6-6-6-6-6-6-6-6-6-6-6-6-6-6-6-6-6-6-6-6-6\3-

 

 

 

 

Riff A (10 times) Riff B

|---------------------------------------|-----------------|--------|-----

|---------------------------------------|-----------------|--------|-----

|---------------------------------------|-----------------|--------|-----

|-5-5-5-5-5-5-5-5-5-5-5-5-5-5-5-5-5-5-3-|-----------------|--------|-----

|-5-5-5-5-5-5-5-5-5-5-5-5-5-5-5-5-5-5-3-|-----------------|--------|-----

|-3-3-3-3-3-3-3-3-3-3-3-3-3-3-3-3-3-3-1-|-----------------|--------|-----

 

 

 

Solo !

Riff A (5 times)

|----------------|----------------------------|--------------------------

|----------------|-10----10-10---10-10--10-10-|-12-----12-----12---------

|----------------|-7-----7--7----7--7---7--7--|-10-10--10-10--10-10------

|----------------|-8-----8--8----8--8---8--8--|--------------------------

|----------------|-6-----6--6----6--6---6--6--|--------------------------

|----------------|-6-----6--6----6--6---6--6--|--------------------------

 

 

 

 

 

|------------------------------------------------------------------------

|-12-----12-----12-----12---------------__________-----------------------

|-10-10--10-10--10-10--10-10-10-10-10-10f-10-10-10---4p0h4p0h4p0h4p0h4---

|------------------------------------------------------------------------

|------------------------------------------------------------------------

|------------------------------------------------------------------------

 

 

 

 

 

|----------------------------------------------------------------------|-

|----------------------------------------------------------------------|-

|--------4p0h4p0h4p0h4p0h4-5f--4p0h4p0h4p0h4p0h4--------4p0h4p0h4p0h4p0|-

|-3p0--------------------------------------------3p0-------------------|-

|-----2-----------------------------------------------2----------------|-

|----------------------------------------------------------------------|-

 

 

 

End!

Riff A (5 times) Riff B Riff A 5 times

|----------------|------|----------------|------|------------------------

|----------------|------|----------------|--10--|------------------------

|----------------|------|----------------|--7---|------------------------

|----------------|------|----------------|--8---|------------------------

|----------------|------|----------------|--6---|------------------------

|----------------|------|----------------|--6---|------------------------

 

 

Cette toune a ete trancrit par MOI alors je ne dit pas qu'elle est

a 100 % comme l'originale mais c'est pas mal pareil, entk quand vous

aller la jouer a du monde il ne verrons pas la difference, pis si il

|------------------------------------------------------------------------

|------------------------------------------------------------------------

|------------------------------------------------------------------------

|------------------------------------------------------------------------

|------------------------------------------------------------------------

|------------------------------------------------------------------------

 

 

la voit ben tant pis ! Kessez ca peut ben faire ??? En passant je n'ai

pas Purple, je l'ai pogner au Letterman show alors ca se peut que STP

ai faite des modification.....(en passant ca ce peut que je me soit

|------------------------------------------------------------------------

|------------------------------------------------------------------------

|------------------------------------------------------------------------

|------------------------------------------------------------------------

|------------------------------------------------------------------------

|------------------------------------------------------------------------

 

 

fourrer dans les nombres de fois que j'ai ecrit pour jouer chaque riff

, c'est pas evident de les compter, faque checker sa avec la K7 pis

toute va bien aller :) ) Faque Bon Jam !!

|------------------------------------------------------------------------

|------------------------------------------------------------------------

|------------------------------------------------------------------------

|------------------------------------------------------------------------

|------------------------------------------------------------------------

|------------------------------------------------------------------------

 

--------------------------------------------------------------------------------

Vasoline

Stone Temple Pilots

 

First, there's a fade-in with feedback (1) which is soon doubled by a guitar

doing hammer-ons from A to Bb (2) and another guitar does upstrokes on

a really weird chord (see "bridge" section WAY below) then there's a little

descending thing (3) right before you go into the main riff...

 

(1) w/ feedback (2) (3)

E-|-----------------|--------------------------------||----------------|

B-|-----------------|--------------------------------||----------------|

G-|-----------------|--------------------------------||----------------|

D-|-----------------|--------------------------------||----------------|

A-|-1~~~~~~~~~~~~~~-|-0h1-0h1-0h1-0h1-0h1-0h1-0h1-0h1||-1-0-0----------|

E-|-----------------|--------------------------------||-------4-4-3-3-2|

 

 

Main riff:

F G F G etc...

E-|---------------|--------------|--------------|--------------|--------------|

B-|---------------|--------------|--------------|--------------|--------------|

G-|---------------|--------------|--------------|--------------|--------------|

D-|---------------|--------------|--------------|--------------|--------------|

A-|---------------|--------------|--------------|--------------|--------------|

E-|-1-3--1-3--1-3-|1-3--1-3--1-3-|1-3--1-3--1-3-|1-3--1-3--1-3-|1-3--1-3--1-3-|

 

E-|-----------------------||

B-|-----------------------||

G-|-----------------------||

D-|-----------------------||

A-|---------------1-1-1-1-||

E-|-1-3bend(full)-0-0-0-0-||

 

 

Here's the part for the chorus (with some lyrics to help you keep up):

Eb

E-|---------------------------------------------------------------------------|

B-|---------------------------------------------------------------------------|

G-|---------------------------------------------------------------------------|

D-|-13-13-13-13-13-13-13-13-13-13-13-13-13-13-13-13-13-13-13-13-13-13-13-13---|

A-|-13-13-13-13-13-13-13-13-13-13-13-13-13-13-13-13-13-13-13-13-13-13-13-13---|

E-|-11-11-11-11-11-11-11-11-11-11-11-11-11-11-11-11-11-11-11-11-11-11-11-11---|

Isn't you__ isn't me___ Search for...

 

Eb D Db C

E-|---------------------------------------------------------------------------|

B-|---------------------------------------------------------------------------|

G-|---------------------------------------------------------------------------|

D-|-13-13-13-13-13-12-11-10-10-10-10-10-10-10-10-10-10-10-10-10-10-10-10------|

A-|-13-13-13-13-13-12-11-10-10-10-10-10-10-10-10-10-10-10-10-10-10-10-10------|

E-|-11-11-11-11-11-10--9--8--8--8--8--8--8--8--8--8--8--8--8--8--8--8--8------|

that you can't... Goin' blind...

 

C F

E-|-----------------------------------------||

B-|-----------------------------------------||

G-|-----------------------------------------||

D-|-10-10-10-10-10-10-10-10-10-10-10-10-----||

A-|-10-10-10-10-10-10-10-10-10-10-10-10-----||

E-|--8--8--8--8--8--8--8--8--8--8--8--8-1~~-||

 

 

 

"Bridge" section (guitar2 + bass do hammer-on from A to Bb):

E-|--------v------------------------v---------------------v-------------------|

B-|--------v8-----------------------v8--------------------v8------------------|

G-|--------v9-----------------------v9--------------------v9------------------|

D-|--------v7-----------------------v7--------------------v7------------------|

A-|--------v------------------------v---------------------v-------------------|

E-|--------v6-----------------------v6--------------------v6------------------|

You'll see the look, and you'll see the lies. You'll eat the lies

 

E-|---------v--|| v

B-|---------v8-|| v

G-|---------v9-|| v

D-|---------v7-|| v means upstroke

A-|---------v--|| v

E-|---------v6-|| v

And you will...

 

Lyrics:

One time a thing occurred to me

What's real and what's for sale

Blew a kiss and tried to take it home.

 

(CHORUS:

Isn't you, isn't me

Search for things that you can't see.

Goin't blind, out of reach

Somewhere in the Vasoline.)

 

Two times and it has rendered me

Punch drunk and without bail

Think I'd be safer all alone.

Flies in the vasoline we are

Sometimes it blows my mind

Keep getting stuck here all the time.

 

(Chorus)

 

(Bridge:

You'll see the look

And you'll see the lies.

You'll eat the lies

And you will...)

 

(solo)

 

Flies in the vasoline we are

Sometimes it blows my mind

Keep getting stuck here all the time.

 

(chorus)

 

 

Return to my to my STP tabs page

The Tablature is Copyright its respective owners.

Sign Up For My Newsletter
Subscribe | Unsubscribe

Site Map | Disclaimer | Privacy Policy | Media Kit | Submissions/Corrections

Website © 2000-2014 mattsmusicpage.com. All rights reserved.

Legal & DMCA: Matt's Music Page has been providing lyrics and tabs in a legal way, paying royalties each year to a few organizations. Then, all lyrics and tabs were removed from the site. Now, there's a new owner to the site, which purchased it August 26, 2014, and he is in negotiation to obtain licensing from BMI at the moment. If you have a specific DMCA request -- please do not hesitate to contact me via the contact button on top. I will do my very best to keep this site fully legal.

Get our toolbar!