Your One-Stop Source For
Music Lyrics
Bass and Guitar Tabs
and More...
Music Lyrics Bass and Guitar Tabs

 

The Tabs Are Below

Learn To Read Tab
Chords Handbook
Corrections & Additions
Get Official Tab
STP tabs @ 911Tabs

 

THIS IS THE TAB FOR "TRIPPIN ON A HOLE IN A PAPER HEART" BY STP

 

 

INTRO

 

 

e ---------------------------------------------------------

B ---------------------------------------------------------

G -6-------------------------------------------------------

D -7----------------------------------------7-7-7-7-7-7----

A -7------4-4-4--X-X-X----4-4-4--X-X-X------7-7-7-7-7-7----

E -5------2-2-2--X-X-X----2-2-2--X-X-X------5-5-5-5-5-5----

 

 

 

VERSE

 

 

e -------0-0-0-0-0-0---------0-0-0-0-0-0-------------------------

B -------0-0-0-0-0-0---------0-0-0-0-0-0-------------------------

G -------3-3-3-3-3-3---------3-3-3-3-3-3-------------------------

D -----------------------------------------------7-7-7-7-7-7-7-7-

A -4-4-4---------------4-4-4---------------------7-7-7-7-7-7-7-7-

E -2-2-2---------------2-2-2---------------------5-5-5-5-5-5-5-5-

 

 

 

CHORUS

 

 

e -----------------------------------------------------------------

B -2-h3-p2-h3-p2-0---2-h3-p2-h3-p2-0-------------------------------

G -0-----------------0-------------------4-4-4-4-4-4-4-4/6-6------- and repeat riff

D -0-----------------0-------------------4-4-4-4-4-4-4-4/6-6-------

A -0-----------------0-------------------2-2-2-2-2-2-2-2/4-4-------

E -3-----------------3---------------------------------------------

 

 

 

 

solo

 

its in F# thats all i can tell you

 

 

 

this song sound good with some distortion and its not too difficult

 

 

Meth4Lunch @ aol.com

 

Return to my to my STP tabs page

The Tablature is Copyright its respective owners.

Sign Up For My Newsletter
Subscribe | Unsubscribe

Site Map | Disclaimer | Privacy Policy | Media Kit | Submissions/Corrections

Website © 2000-2014 mattsmusicpage.com. All rights reserved.

Legal & DMCA: Matt's Music Page has been providing lyrics and tabs in a legal way, paying royalties each year to a few organizations. Then, all lyrics and tabs were removed from the site. Now, there's a new owner to the site, which purchased it August 26, 2014, and he is in negotiation to obtain licensing from BMI at the moment. If you have a specific DMCA request -- please do not hesitate to contact me via the contact button on top. I will do my very best to keep this site fully legal.

Get our toolbar!

 

Starbucks You Are Here Coffee Mug/Cup KENTUCKY - Horses, Banjo, Blue, White
$19.99
Starbucks You Are Here Coffee Mug/Cup KENTUCKY - Horses, Banjo, Blue, White picture


KNOWLES ROCKWELL HERITAGE "THE BANJO PLAYER" FIRST EDITION 1989 PLATE COA
$5.99
KNOWLES ROCKWELL HERITAGE


Vintage Postcard 1981 Disney World Banjo Kings Main Street USA 1981 Postmark
$4.99
 Vintage Postcard 1981 Disney World Banjo Kings Main Street USA 1981 Postmark picture


Banjo Barometer With Thermometer Hygrometer 490mm
$84.76
Banjo Barometer With Thermometer Hygrometer 490mm picture


ANTIQUE JAPANESE NIPPON FIGURINE SET OF 3 WOMEN GEISHA PLAYING DRUM BANJO FAN
$24.0
ANTIQUE JAPANESE NIPPON FIGURINE SET OF 3 WOMEN GEISHA PLAYING DRUM BANJO FAN picture