Your One-Stop Source For
Music Lyrics
Bass and Guitar Tabs
and More...
Music Lyrics Bass and Guitar Tabs

 

The Tabs Are Below

Learn To Read Tab
Chords Handbook
Corrections & Additions
Get Official Tab
STP tabs @ 911Tabs

Artist: Stone Temple Pilots

Song: Too Cool Queenie

Transcribed by: Justin Ferrara

visit my stone temple pilots fan site: http://www.geocities.com/stonetemplepilots_ca/

 

Intro/Verse

Bb C Bb F

E --------------6-----8-----6--6-6--1-

B --------------6-----8-----6--6-6--1-

G ---7----7-----7-----9-----7--7-7--2-

D ---7----7-----8-----10----8--8-8--3-

A -5------------8-----10----8--8-8--3-

E ------8-----6-6---8-8---6-6--6-6--1-

 

Chorus

A C Db Ab Bb

E -5---------3---------6---------4---6-

B -5---------5---------8---------4---6-

G -6---------5---------8---------5---7-

D -7---------5---------8---------6---8-

A -7------4--3--3-5-7--6------5--6---8-

E -5--5-7-----------------6-8----4---6-

 

Note: Second Verse....The Second Part may change to a regular c major bar chord,

instead of the ----- (I cant really hear it well)

-----

---7-

---7-

-----

-8---

 

Just play this solo(it may not be right), or just play a

d minor pentatonic solo, it should work.

 

 

Solo:

 

 

------------------------------------------------------------------------

------------------------------------------------------------------------

-12b14-12b14-10h12-12b14-10b12---12~~----12b14-10h12-12b14-10b12---12~--

------------------------------------------------------------------------

------------------------------------------------------------------------

------------------------------------------------------------------------

 

 

-----------------------------------------------------------------------------

-----------------------------------------------------------------------------

-----------------------------------------------------------------------------

--10h12h10-------------------------------------------10h12h10-------10h12----

--------------------10h12h10----8~~-----10h12-----------------12-------------

-----------------------------------------------------------------------------

 

--------------------------------------------------------

--------------------------------------------------------

----10h12----12b14---10h12-12b14b12p10-12p10------------

--------------------------------------------------------

--------------------------------------------------------

--------------------------------------------------------

 

----------------------------------------

-13b15~~----13b15---17-17h18h17--15-17--

----------------------------------------

----------------------------------------

----------------------------------------

 

 

 

Return to my to my STP tabs page

The Tablature is Copyright its respective owners.

Sign Up For My Newsletter
Subscribe | Unsubscribe

Site Map | Disclaimer | Privacy Policy | Media Kit | Submissions/Corrections

Website © 2000-2014 mattsmusicpage.com. All rights reserved.

Legal & DMCA: Matt's Music Page has been providing lyrics and tabs in a legal way, paying royalties each year to a few organizations. Then, all lyrics and tabs were removed from the site. Now, there's a new owner to the site, which purchased it August 26, 2014, and he is in negotiation to obtain licensing from BMI at the moment. If you have a specific DMCA request -- please do not hesitate to contact me via the contact button on top. I will do my very best to keep this site fully legal.

Get our toolbar!

 

Starbucks You Are Here Coffee Mug/Cup KENTUCKY - Horses, Banjo, Blue, White
$19.99
Starbucks You Are Here Coffee Mug/Cup KENTUCKY - Horses, Banjo, Blue, White picture


KNOWLES ROCKWELL HERITAGE "THE BANJO PLAYER" FIRST EDITION 1989 PLATE COA
$5.99
KNOWLES ROCKWELL HERITAGE


Vintage Postcard 1981 Disney World Banjo Kings Main Street USA 1981 Postmark
$4.99
 Vintage Postcard 1981 Disney World Banjo Kings Main Street USA 1981 Postmark picture


Banjo Barometer With Thermometer Hygrometer 490mm
$84.76
Banjo Barometer With Thermometer Hygrometer 490mm picture


ANTIQUE JAPANESE NIPPON FIGURINE SET OF 3 WOMEN GEISHA PLAYING DRUM BANJO FAN
$24.0
ANTIQUE JAPANESE NIPPON FIGURINE SET OF 3 WOMEN GEISHA PLAYING DRUM BANJO FAN picture