Your One-Stop Source For
Music Lyrics
Bass and Guitar Tabs
and More...
Music Lyrics Bass and Guitar Tabs

 

The Tabs Are Below

Learn To Read Tab
Chords Handbook
Corrections & Additions
Get Official Tab
STP tabs @ 911Tabs

 

Still Remains

Stone Temple Pilots

 

 

Intro:

G(no5)

|A(no5) A(add4)

| | | x 3

||----------0--0-------------------||-0----0-----0----------|

||----------0--0-------------------||-0----0-----0----------|

||*-4/6-6-6-6--6-4/6-6-6-4/6-7-6--*||-6----9----14----------|

||--5/7-7-7-7--7-5/7-7-7-5/7-7-7---||-7----9----14----------|

||*-2/4-4-4-4--4-2/4-4-4-2/4-5-4--*||-4----7----12----------|

||--3/5-5-5-5--5-3/5-5-5-3/5-5-5---||-5----8----13----------|

 

*N.B. best fingering for the A(no 5) is:

 

4th | 1 | | | | (you get used to it!!) | | | | | |

5th 2 | | | | | 2 1 | | | |

6th | | | 3 | | * to play the A(add 4) : | | |(3)| |

7th | | 4 | | | bridge your pinkie | | 4 4 | |

| | | | | | over the two strings | | | | | |

and slide your first

finger up one fret. (You might get away

with not sliding your finger up by just

creating a pseudo-A(add 4) with your

4th finger bridging the two strings.

 

 

 

and the last two chords of the intro are of the form:

 

| 1 | | | | just reverse your last two fingers.

2 | | | | |

| | 3 4 0 0

| | | | | |

| | | | | |

 

Verse (use intro riff 4 times - not the last three chords)

 

 

Our bed we live, our bed we sleep

Making love and I become you

Flesh is warm with naked feet

Stabbing thorns and you become me

 

Intro Chorus:

 

|-0--0--0--0--0--0--0--0-----------|-------------------------

|-0--0--0--0--0--0--0--0-----------|-------------------------

|-6--6--2--2--4--4--4--4-----------|-------------------------

|-7--7--3--3--5--5--5--5-----------|-------------------------

|-4--4--0--0--2--2--2--2-----------|-------------------------

|-5--5--1--1--3--3--3--3-----------|-------------------------

 

Oh....I'd beg for you

Oh....You know I'd beg for you

 

Chorus:

 

F Fdim7 G Dsus2 x3

|---1-------0--------3--------0----||------------------------

|---1-------0--------3--------3----||------------------------

|---2-------2--------0--------2----||------------------------

|---3-------3--------0--------0----||------------------------

|---3-------3--------2--------0----||------------------------

|---1-------1--------3-------------||------------------------

(T)

* Play the base note with your thumb.

 

Pick a song and sing a yellow nectarine

Take a bath I'll drink the water that you leave

If you should die before me ask if you could bring a friend

 

F G Dsus2 A

Pick a flower, hold your breath and drift away...

 

To verse:

 

She holds my hand we share a laugh

Sipping orange blossom breezes

Love is still and sweat remains

A cherished gift unselfish feeling

 

Oh, Id beg for you

Oh, You know I'd beg for you

 

Chorus

 

Interlude

 

('A' chord played over and over here)

 

Verse 3:

 

She tells me things, I listen well

Drink the wine and save the water

Skin is smooth, I steal a glance

Dragon flies are gliding over

 

Oh, I'd beg for you

Oh, You know I'd beg for you.

 

Chorus

 

--------------------------------------------------------------------------------

Still Remains

Stone Temple Pilots

 

Chords:

Here's what I used, just in case I've messed the names up....

A - x02220

E - 022100

C#m7 - x35343

Fmaj7 - x33210

G6 - x55430

A/E - 077650

C - x32010

D - xx0232

Em - 022003

Am - x02210

F - 133211

 

Intro:

e------------------------------------------ -----------

B--0--2--2--2--2---0--2--2--2--0--2--3--2-- --0--2--0--

G--2--2--2--2--2---2--2--2--2--2--2--2--2-- --2--2--1--

D--2--2--2--2--2---2--2--2--2--2--2--2--2-- --2--2--2--

A--0--0--0--0--0---0--0--0--0--0--0--0--0-- --0--0--2--

E------------------------------------------three times, then --------0--

 

Verse:

 

A E A

Our bed we live, our bed we sleep

C#m7 A

making love and I become you -

E A

flesh is warm with naked feet

C#m7 Fmaj7

stabbing thorns and you become me

G6 A/E G6 C

oh, I'd beg for you, you know I'll beg for you.

 

Chorus:

 

C D Em Am

pick a song and sing a yellow nectarine

C D Em Am

take a bath, I'll drink the water that you leave

C D Em Am

if you should die before me, ask if you can bring a friend

C D Em Am

pick a flower, hold your breath and drift away...

 

Verse 2:

she holds my hand we share a laugh,

slipping orange blossom breezes -

love is still and sweat remains

a cherished gift unselfish feeling...

oh, I'd beg for you, you know I'll beg for you.

 

pick a song and sing a yellow nectarine

take a bath, I'll drink the water that you leave

if you should die before me -

ask if you can bring a friend

pick a flower, hold your breath

and drift away...

 

Verse 3:

she tells me things, I listen well

drink the wine and save the water -

skin is smooth, I steal a glance

dragon flies are gliding over...

oh, I'll beg for you - you know I'll beg for you

 

pick a song and sing a yellow nectarine

take a bath, I'll drink the water that you leave

if you should die before me -

ask if you can bring a friend

pick a flower, hold your breath

and drift away...

 

 

Return to my to my STP tabs page

The Tablature is Copyright its respective owners.

Sign Up For My Newsletter
Subscribe | Unsubscribe

Site Map | Disclaimer | Privacy Policy | Media Kit | Submissions/Corrections

Website © 2000-2014 mattsmusicpage.com. All rights reserved.

Legal & DMCA: Matt's Music Page has been providing lyrics and tabs in a legal way, paying royalties each year to a few organizations. Then, all lyrics and tabs were removed from the site. Now, there's a new owner to the site, which purchased it August 26, 2014, and he is in negotiation to obtain licensing from BMI at the moment. If you have a specific DMCA request -- please do not hesitate to contact me via the contact button on top. I will do my very best to keep this site fully legal.

Get our toolbar!