Your One-Stop Source For
Music Lyrics
Bass and Guitar Tabs
and More...
Music Lyrics Bass and Guitar Tabs

 

The Tabs Are Below

Learn To Read Tab
Chords Handbook
Corrections & Additions
Get Official Tab
STP tabs @ 911Tabs

 

Sin

Stone Temple Pilots

 

 

: Am C Bm G F (?) Em

: E ----------------------------------------------------------------------

: B ----1-------1-------3---------------------------------------3--1---0--

: G ---2-2-----0-0-----4-4------4-------2---------7---------0-------------

: D --2---2---2---2---4---4----5-5-----3-3-------8-8-------2--------------

: A -0-------3-------0--------5---5---3---3-----8---8-----2---------------

: E 0-------0-------0--------3-------1---------6---------0----------------

 

This is the way I play it... it sounds just like on the CD... It seems you

have a few extra notes here and there... Give it a try:

 

Amin Cmaj

E-|---------------------------------------------------------------------------|

B-|-------------0h1-----------------------1-----------------------------------|

G-|---------2---------2---------------0-------0-------------------------------|

D-|-----2-------------------------2---------------2---------------------------|

A-|-0-------------------------3-----------------------------------------------|

E-|---------------------------------------------------------------------------|

 

Barre 2nd Fret Barre 3rd Fret Barre 1st Fret

E-|---------------------------------------------------------------------------|

B-|-------------2h3-----------------------------------------------------------|

G-|---------4---------4-------------------4-------------------------2---------|

D-|-----4-----------------------------5-------5-----------------3-------3-----|

A-|-2-----------------------------5-------------------------3-----------------|

E-|---------------------------3-------------------------1---------------------|

 

Barre 6th Fret

E-|---------------------------------------------------------------------------|

B-|-------------------------------------------3---1---0-----------------------|

G-|-------------7-------------------------0---0---0---0-----------------------|

D-|---------8-------8-----------------2-------2---2---2-----------------------|

A-|-----8-------------------------2-------------------------------------------|

E-|-6-------------------------0-----------------------------------------------|

 

 

 

Return to my to my STP tabs page

The Tablature is Copyright its respective owners.

Sign Up For My Newsletter
Subscribe | Unsubscribe

Site Map | Disclaimer | Privacy Policy | Media Kit | Submissions/Corrections

Website © 2000-2014 mattsmusicpage.com. All rights reserved.

Legal & DMCA: Matt's Music Page has been providing lyrics and tabs in a legal way, paying royalties each year to a few organizations. Then, all lyrics and tabs were removed from the site. Now, there's a new owner to the site, which purchased it August 26, 2014, and he is in negotiation to obtain licensing from BMI at the moment. If you have a specific DMCA request -- please do not hesitate to contact me via the contact button on top. I will do my very best to keep this site fully legal.

Get our toolbar!