Your One-Stop Source For
Music Lyrics
Bass and Guitar Tabs
and More...
Music Lyrics Bass and Guitar Tabs

 

The Tabs Are Below

Learn To Read Tab
Chords Handbook
Corrections & Additions
Get Official Tab
STP tabs @ 911Tabs

Tune guitars down a whole step (D,G,C,f,a,d)

 

Rhythm figure one

guitar one

G5 E5 G5

|-------------------------------------------------------------------------|

|-------------------------------------------------------------------------|

|-------------------------------------------------------------------------|

|-------------------------------------------------------------------------|

|--5--5-|-2----2--------2----2---------2-2--|-2---2-----2---2-------5--5--|

|--3--3-|-0----0--------0----0---------0-0--|-0---0-----0---0-------3--3--|

|

|

|Figure 1A

|guitar 2

| Bend~~~ Bend~~~~~~ Bend~~ Bend~~~

|-------|-----------------------------------|------------------------------|

|-------|-----------------------------------|------------------------------|

|-------|-----------------------------------|------------------------------|

|-------|--2-----2---------2----2-----------|--2----2--------2---2---------|

|-------|--2--4----4^(5)---2-4----4^(5)-----|--2--4---4^(5)--2--4---4^(5)--|

|-------|-----------------------------------|------------------------------|

 

 

E5 G5 E5 F#5 G5 F#5

(end1)

|----------------------------------|-------------------------------------------||

|----------------------------------|-------------------------------------------||

|----------------------------------|-------------------------------------------||

|----------------------------------|-------------------------------------------||

|-2------2-------2----2------5--5--|-2------2--2---2--4---5--5--5--5----4---4--||

|-0------0-------0----0------3--3--|-0------0--0---0--2---3--3--3--3----2---2--||

|

|

|

| Bend~~~ Bend~~~~~ Bend~~~~~~~~~~~~~~~~~~~~~~(end1A)

|----------------------------------|-------------------------------------------||

|----------------------------------|-------------------------------------------||

|----------------------------------|-------------------------------------------||

|---2----2---------2---2-----------|----2------2-------------------------------||

|---2--4----4^(5)--2-4---4^(5)----|----2---4-----4^(5)------------------------||

|----------------------------------|-------------------------------------------||

 

 

 

 

Rhythm Figure 2 (guitars 1&2)

(E5) G5

|----------------------------------------------------|

|----------------------------------------------------|

|----------------------------------------------------|

|----------------------------------------------------|

|--------------5--5--5-----------------5------5---7--|

|---0------0---3--3--3-----0--5--6--7------7---------|

| |

| Find you in the dark,______ |

| |

|----------------------------------------------------|

 

(E5) G5 (end 2)

|----------------------------------------------------|

|----------------------------------------------------|

|----------------------------------------------------|

|----------------------------------------------------|

|--------------5--5--5--------------------------5----|

|---0------0---3--3--3------0--5--6--7--6----5--3----|

| |

| Read you like a cheap_ sur - prise.__|

| |

|----------------------------------------------------|

 

With figure2, three times.

 

oh without shame, Sell me out and frame you're name.

I can hear when the pig whispers sweetly, Jealousy is the weapon you kill me.

Keep a dime for the truth you might tell.

 

 

Chorus:

(Rhythm figure3 guitars1&2)

 

E Esus2 E E*7 D/E

|-----------------------------------|---------------------------------------|

|---9----9--9--7-----9-----9----8---|--------8---8-----8---8---8----8---7---|

|---9----9--9--9-----9-----9----6---|--------6---6-----6---6---6----6---7---|

|---9----9--9--9-----9-----9----8---|--------8---8-----8---8---8----8---7---|

|---7----7--7--9-----7-----7----7---|--------7---7-----7---7---7----7---7---|

|-----------------------------------|---------------------------------------|

| |

| You towed the line,________________ |

| |

|-----------------------------------|---------------------------------------|

 

 

E C D E

|---------------------------------------|----------------------------------------|

|---7------7------7--7----7---7----9----|--9-----9-----9----9---5------7------9--|

|---7------7------7--7----7---7----9----|--9-----9-----9----9---5------7------9--|

|---7------7------7--7----7---7----9----|--9-----9-----9----9---5------7------9==|

|---7------7------7--7----7---7----7----|--7-----7-----7----7---3------5------7--|

|---------------------------------------|----------------------------------------|

|

| And I know__ it was mine.________________

|

|---------------------------------------|----------------------------------------|

 

 

Esus2 E E*7

|-------------------------------------------------|---------------------------------|

|---9-----------9------------9---9-----9---9---8--|----8--8--8--8--8--8--8----8--8--|

|---9-----------9------------9---9-----9---9---6--|----6--6--6--6--6--6--6----6--6--|

|---9-----------9------------9---9-----9---9---8--|----8--8--8--8--8--8--8----8--8--|

|---7-----------7------------7---9-----7---7---7--|----7--7--7--7--7--7--7----7--7--|

|-------------------------------------------------|---------------------------------|

|

|

| Couldn't hide,__write a wave, ride a lie.__________________ Letme know,|

|

|

|-----------------------------------------------------------------------------------|

 

 

 

D/E E E5 F#5 G5 F#5 E5

|---------------------------------------------|-----------------------------------|

|---7-------7--------7---7--7--7----7----9----|----9----9-------------------------|

|---7-------7--------7---7--7--7----7----9----|----9----9-------------------------|

|---7-------7--------7---7--7--7----7----9----|----9----9-------------------------|

|---7-------7--------7---7--7--7----7----7----|----7----7---2-4--5-5-5-5--4--4-2--|

|---------------------------------------------|-------------0-2--3-3-3-3--2--2-0--|

|

|

|________ can a friend___ ask you why?________

|

|

|

|---------------------------------------------|-----------------------------------|

 

 

E E5 F#5 G5 F#5 E5 F#5 G5 F#5 E5

|-----------------------------------------|------------------------------------------|

|------9---9------------------------------|------------------------------------------|

|------9---9------------------------------|------------------------------------------|

|------9---9------------------------------|------------------------------------------|

|------7---7--2--4--5--5--5--5---4--4--2--|--2--------2--4---5--5--5--5-----4--4--2--|

|-------------0--2--3--3--3--3---2--2--0--|--0--------0--2---3--3--3--3-----2--2--0--|

 

 

F#5 G5 F#5 E5

|---------------------------------------------------|-------------------------------||

|---------------------------------------------------|-------------------------------||

|---------------------------------------------------|-------------------------------||

|---------------------------------------------------|-------------------------------||

|---2------------------2--4--5--5--5--5----4--4--2--|--2----------------------------||

|---0------------------0--2--3--3--3--3----2--2--0--|--0----------------------------||

 

 

 

Bridge:

 

Guitar4 (clean tone) (Ls - legatto slide

Ls Ls

|--------------------------------9--X-----|-----------------------------9---X-----|

|-----------7--------------------8--X-----|-----------7-----------------8---X-----|

|--7/9--9--------9-----------7------------|----9--9------9---------7--------------|

|--7/9--9-----------9-/9---------------8--|--8/9--9----------9-/9---------------8-|

|--5/7--7---------------------------------|----7--7-------------------------------|

|--------------------------------------0--|-------------------------------------0-|

|

|

| Wait for me take a dive, take a piece of my life|

|

|

|-----------------------------------------|---------------------------------------|

 

 

Ls Ls

|--------------------------------9--X-----|-------------------------9-9-9-9-9-9-9--|

|-------------7------------------8--X-----|-------------7-----------8-8-8-8-8-8-8--|

|-------9--9-----9---------7--------------|-------9--9-----9-----------------------|

|--8/9--9--9--------9-/9---------------8--|--8/9--9--9-----9--9--------------------|

|-------7--7------------------------------|-------7--7-----7-----7-----------------|

|--------------------------------------0--|----------------------------------------|

|

|

| Wait for me,_____ tell a lie, try to take mywife.__ |

| Leave___ me numb

|

|-----------------------------------------|----------------------------------------|

 

 

 

|---------------------------------9--------|-----------------------------9--X------|

|---------------7-----------------8--------|-------------7---------------8--X------|

|---------9--9-----9---------7-------------|-------9--9------9--------7------------|

|----8/9--9--9--------9-/9----------9---8--|--8/9--9--9---------9-/9------------8--|

|---------7--7----------------------7------|-------7--7----------------------------|

|----0----------------------------------0--|--0------------------------------------|

|

|

| Wait for me,_____ take a dive take a piece ofmy life|

| Leave__ me numb.|

|------------------------------------------|---------------------------------------|

 

 

Ls Ls

|---------------------------------9-------|---------------------------------------||

|--------------7------------------8-------|---------------------------------------||

|--------9--9------9-----------7----------|-------9-------------------------------||

|---8/9--9--9-----------9-/9-----------8--|--8/9--9-------------------------------||

|--------7--7------------------------7----|-------7-------------------------5--5--||

|---0-------------------------------------|--0------------------------------3--3--||

| ||

| Close to me,___ and I'll leave you numb.||

| Leave_____ me numb||

|---------------------------------------------------------------------------------||

 

 

 

Outro/solo with figure 3

Guitar 5 (slight distortion) [b-bend r-release h-hammer on p-pulloff

ls-leggato slide]

 

~~~~~~~~~~~ ls b~~~~~~~~~~~ b r h

|-------------------------------|--------------------------------------|

|-------------------------------|--------------------------------------|

|--13---13-----------13/14--12--|----7^(9)---------12^(14)^12\--12^14--|

|-------------------------------|--------------------------------------|

|--11---11-----------11/12--10--|--------------------------------------|

|-------------------------------|--------------------------------------|

 

b r ~~~~~ b r h h

|--------------------------------------------------------------|

|--------------------------------------------------------------|

|--14^(16)^14^12--14--12------14^(16)^14^12--14--12^14--12^13--|

|--------------------------------------------------------------|

|--------------------------------------------------------------|

|--------------------------------------------------------------|

 

b~~~~~~~ r b r b b b~~~~~~ b

|------------------------------------------|---------------------------------------|

|--15^(17)----(17)^16--15(17)^15--15^(17)--|--15^(17)---15^(17)-----17^(19)----15--|

|------------------------------------------|---------------------------------------|

|------------------------------------------|---------------------------------------|

|------------------------------------------|---------------------------------------|

|------------------------------------------|---------------------------------------|

 

h b ~~~~~~ h p p h p p p

|--------------------------------------|------------------------------------------

|---12^14-12^(14)-------------12---14--|--15-14^15^14^12-14---12^14^12---12^10^9--

|-------------------13-----------------|------------------------------------------

|--------------------------------------|------------------------------------------

|--------------------------------------|------------------------------------------

|--------------------------------------|------------------------------------------

 

~~~ b ~~~~~~~~ b b

-----------------------|----------------------------0-0-|

---10-----9------------|----------------------------0-0-|

-------------9---------|------9-9-9--------9--------0-0-|

----------------8^(9)--|-------------8^(9)----8^(9)-----|

-----------------------|--------------------------------|

-----------------------|--------------------------------|

 

b r b r b r ls

|--------------------------------------------------------------------|

|------------------15----------------------12------------------------|

|--14(16^14^(16)-------(16)^14---11^(13)-------(13)^11--9--11--9\7---|

|--------------------------------------------------------------------|

|--------------------------------------------------------------------|

|--------------------------------------------------------------------|

 

h b b~~~~ h b b~~~~ b~~~~ h b b~~~~

|---------------------------------------|-------------------------------------------|

|---------------------------------------|-------------------------------------------|

|---7^9--9^(11)-9^(11)--/14^16-16^(19)--|--16^(19)--16^(19)---14^16-16^(19)-16^(19)-|

|---------------------------------------|-------------------------------------------|

|---------------------------------------|-------------------------------------------|

|---------------------------------------|-------------------------------------------|

 

~~~~~ b r ~~~

|-----------12--12--16-16^(17)-16-12------12--|

|-------------------------------------15------|

|--\--0--0------------------------------------|

|---------------------------------------------|

|---------------------------------------------|

|---------------------------------------------|

 

p p p p

|---16^12---12-16^12---12-16^12---12-16^12---12-16/19--18--|

|---------15---------15---------15---------15--------------|

|----------------------------------------------------------|

|----------------------------------------------------------|

|----------------------------------------------------------|

|----------------------------------------------------------|

 

~~~ b ~~~~~~ b b

 

|--17--16-------15-17-15^(16)-----------------|--15^(16)-X------------17-18-19^(22)-|

|----------\-/17-------------17---17--15--17--|----------X-17-17^(19)---------------|

|---------------------------------------------|----------/18------------------------|

|---------------------------------------------|-------------------------------------|

|---------------------------------------------|-------------------------------------|

|---------------------------------------------|-------------------------------------|

 

r b h

|-----19-----X-X----------12--------------------------------------------|

|---------17\X-X--------------15----------------------------------------|

|-----------------14^(16)---------14--12-------14^12--------------------|

|------------------------------------------14----------14--12-----------|

|---------------------------------------------------------------14--12--|

|-----------------------------------------------------------------------|

 

~~~~ ~~~ ls ~~~~~ ls ~~~~~ ~~

|-------------------------------------------|------------------------X--X--------|

|-------------------------------------------|--------------------8---X--X--0-----|

|---------13---13--13--13----13--13/14--12--|---12----7/9---------------------0--|

|-------------------------------------------|------------------------------------|

|--11-----11---11--11--11----11--11/12--10--|---10-------------------------------|

|-------------------------------------------|------------------------------------|

 

b r b b r h ~~~~~ b gradual b b

|----------------------------------------------|--15^(18)^^^^^(19)-16-15--------

|--14^(15)--14-14^(15)-14^(15)^14---12^14--12--|------------------------15^(17)-

|----------------------------------------------|--------------------------------

|----------------------------------------------|--------------------------------

|----------------------------------------------|--------------------------------

|----------------------------------------------|--------------------------------

 

p h p ls h b r p

--12------------------|-----------------------------------------------------------

------15--------------|-----------------------------------------------------------

-----------14^12------|--14--12^13^12---------------------------------------------

------------------14--|---------------14------------------------------------------

----------------------|------------------14\12--10^12----10---------12^(13)^12^10-

----------------------|-------------------------------12-----10-12----------------

 

h h h h p

|--------------------------------------------12^14^12--|

|----------------------------------12^13^14------------|

|----------------12------12^13^14----------------------|

|---------12-14------14--------------------------------|

|--12^14-----------------------------------------------|

|------------------------------------------------------|

 

p b b b grad rel b

|-12-15--14^12------12--12-------17^(19)--|-15-17-15^(16)---------------------------|

|---------------14----------X-0-----------|--------------17-15-17^(21)^^^17-17^(21)-|

|---------------------------X-------------|-----------------------------------------|

|---------------------------X-------------|-----------------------------------------|

|-----------------------------------------|-----------------------------------------|

|-----------------------------------------|-----------------------------------------|

 

b b b b p b r

|------------------------------19^(22)-|-19-18-17-15-17-17^(19)-17^15-17-15----------|

|-17^(21)---17-17^(20)\-----17---------|-----------------------------------17^(21)^17|

|----------------------/18-------------|---------------------------------------------|

|--------------------------------------|---------------------------------------------|

|--------------------------------------|---------------------------------------------|

|--------------------------------------|---------------------------------------------|

 

b p b ~~~~~

|---------------12----------------------------------------------------------0--0--|

|-----------12------15--------------14---12---------------------------------------|

|---14^(16)--------------14^12------14---12-14^(16)----12----12-----(12)\---------|

|-------------------------------14------------------------14----------------------|

|---------------------------------------------------------------------------------|

|---------------------------------------------------------------------------------|

 

b&hold r b

|---------15------------------12--16----12--15----12--16----12--15--|---------||

|-14^(15)----(15)^14^(15)--14--------14--------14--------14---------|---14\---||

|-------------------------------------------------------------------|---------||

|-------------------------------------------------------------------|---------||

|-------------------------------------------------------------------|---------||

|-------------------------------------------------------------------|---------||

 

Return to my to my STP tabs page

The Tablature is Copyright its respective owners.

Sign Up For My Newsletter
Subscribe | Unsubscribe

Site Map | Disclaimer | Privacy Policy | Media Kit | Submissions/Corrections

Website © 2000-2014 mattsmusicpage.com. All rights reserved.

Legal & DMCA: Matt's Music Page has been providing lyrics and tabs in a legal way, paying royalties each year to a few organizations. Then, all lyrics and tabs were removed from the site. Now, there's a new owner to the site, which purchased it August 26, 2014, and he is in negotiation to obtain licensing from BMI at the moment. If you have a specific DMCA request -- please do not hesitate to contact me via the contact button on top. I will do my very best to keep this site fully legal.

Get our toolbar!