Your One-Stop Source For
Music Lyrics
Bass and Guitar Tabs
and More...
Music Lyrics Bass and Guitar Tabs

 

The Tabs Are Below

Learn To Read Tab
Chords Handbook
Corrections & Additions
Get Official Tab
STP tabs @ 911Tabs

SONG: Regeneration

ARTIST: Stone Temple Pilots

ALBUM: Shangri-La Dee Da

 

Tabbed by Ryan Liddell

 

INTRO (repeated w/ effects)

 

E|-------5------| E|-----------------|

B|-8-6-8---8-6--| OR B|-8-6-8-/10\-8-6--|

G|--------------| G|-----------------|

D|--------------| D|-----------------|

A|--------------| A|-----------------|

E|--------------| E|-----------------|

 

VERSE

 

E|-3--3--3--3-3-3-3--3-3-3---0~--

B|-2--0--2--0-2-0-2--0-2-0---3~--

G|-0--0--0--0-0-0-0--0-0-0---3~--

D|-------------------------------

A|-------------------------------

E|-------------------------------

 

E|-3--3--3--3-3-3-3--3-3-3---0---(1)-(1)--|

B|-2--0--2--0-2-0-2--0-2-0---3---(3)-(3)--|

G|-0--0--0--0-0-0-0--0-0-0---3---(3)-(3)--|

D|----------------------------------------|

A|----------------------------------------|

E|----------------------------------------|

 

CHORUS (X = mute the string)

 

played the 1st and 3rd times

E|------------------------------------------------

B|------------------------------------------------

G|------------------------------------------------

D|-5-5-5-5-/-7-7-7-7-/-9-9-9-9-/-11-11-11-11--11-12-11--

A|-X-X-X-X-/-X-X-X-X-/-X-X-X-X-/--X--X--X--X---X--X--X--

E|-3-3-3-3-/-5-5-5-5-/-7-7-7-7-/--9--9--9--9---9-10--9--

 

played the 2nd and 4th times

E|--------------------------------------------

B|--------------------------------------------

G|--------------------------------------------

D|-3-3-3-3-/-5-5-5-5-/-7-7-7-7-/-9-9-9-9--11-12-11--

A|-X-X-X-X-/-X-X-X-X-/-X-X-X-X-/-X-X-X-X---X--X--X--

E|-1-1-1-1-/-3-3-3-3-/-5-5-5-5-/-7-7-7-7---9-10--9--

 

E|----------------------------|

B|----------------------------|

G|----------------------------| X 2

D|-3-3-3-3---3-3-3-3-3---3-3--|

A|-X-X-X-X---X-X-X-X-X---X-X--|

E|-1-1-1-1---1-1-1-1-1---1-1--|

 

BRIDGE

 

E|---------------------------|

B|---------------------------|

G|---------------------------| X 4

D|-3-3-3-3---3-3-3-3----3-3--|

A|-X-X-X-X---X-X-X-X----X-X--|

E|-1-1-1-1---1-1-1-1----1-1--|

 

E|---------------------------|

B|---------------------------|

G|-4-4-4-4---4-4-4-4----4-4--| X 4

D|-3-3-3-3---3-3-3-3----3-3--|

A|-X-X-X-X---X-X-X-X----X-X--|

E|-1-1-1-1---1-1-1-1----1-1--|

 

SOLO (during bridge)

 

E|----------------------------------------

B|----------------------------------------

G|-7h8p7--5-/-13b--13b15b13-12b----10-12--

D|------------------------------12--------

A|----------------------------------------

E|----------------------------------------

 

E|-------------------------------|

B|-10-12b13b12-10---12b13b12-10--|

G|-------------------------------|

D|-------------------------------|

A|-------------------------------|

E|-------------------------------|

 

 

 

Return to my to my STP tabs page

The Tablature is Copyright its respective owners.

Sign Up For My Newsletter
Subscribe | Unsubscribe

Site Map | Disclaimer | Privacy Policy | Media Kit | Submissions/Corrections

Website © 2000-2014 mattsmusicpage.com. All rights reserved.

Legal & DMCA: Matt's Music Page has been providing lyrics and tabs in a legal way, paying royalties each year to a few organizations. Then, all lyrics and tabs were removed from the site. Now, there's a new owner to the site, which purchased it August 26, 2014, and he is in negotiation to obtain licensing from BMI at the moment. If you have a specific DMCA request -- please do not hesitate to contact me via the contact button on top. I will do my very best to keep this site fully legal.

Get our toolbar!