Your One-Stop Source For
Music Lyrics
Bass and Guitar Tabs
and More...
>Music Lyrics Bass and Guitar Tabs

 

The Tabs Are Below

Learn To Read Tab
Chords Handbook
Corrections & Additions
Get Official Tab
STP tabs @ 911Tabs

Stone Temple Pilots Guitar Tablature

Transcribed by Prodigidan (prodigidan@hotmail.com)

"Pruno"

 

Dropped D Tuning

 

INTRO/CHORUS

 

Guitar 1 (heavy distortion)

 

H H

[--|-------------------------------|------------------------------]

[--|-------------------------------|------------------------------]

[--|-------------------------------|------------------------------]

[--|-------------------------------|------------------------------]

[-2/--2~~-0-----3---5---0---0-0-2-2/--2~~-0-----3---5---0---0-0-2-]

[-----------5-0-3---5---0---0-0-------------5-0-3---5---0---0-0---]

 

H H

[--|-------------------------------|------------------------------]

[--|-------------------------------|------------------------------]

[--|-------------------------------|------------<5>---------------]

[--|-------------------------------|------------<5>---------------]

[-2/--2~~-0-----3---5---0---0-0-2-2/--2~~-0-----<5>---------------]

[-----------5-0-3---5---0---0-0-------------5-0-<5>---------------]

 

VERSE

 

Guitar 1 (clean /w tremelo)

 

[-----------------------------------------------------------------]

[---------------3-------------------------1-----3-----------------]

[---------0---------2-----------------0-------------2-------------]

[-----4-----------------------------------------------------------]

[-5-----------5-------------------3-----------3-------------------]

[-----------------------------------------------------------------]

 

[-----------------------------------------------------------------]

[---------------3-------------------------1-----3-------1---------]

[---------0---------2-----------------0-------------2-------------]

[-----4-----------------------------------------------------------]

[-5-----------5-------------------3-----------3-------------------]

[-----------------------------------------------------------------]

 

PRECHORUS

 

Guitar 1

 

[-----------------------------------------------------------------]

[-----------------------------------------------3-----------------]

[---------0-----2-------------------------0-----------------------]

[-----0-------------------------------3---------------------------]

[-2-----------2-------------------1-----------1-------------------]

[-----------------------------------------------------------------]

 

Guitar 2 (acoustic)

 

[-----------------------------------------------------------------]

[-3'------------------------------3'------------------------------]

[-2'------------------------------0'--------------------0-0---0---]

[-0'------------------------------3'--------------------3-3---2---]

[-2'------------------------------1'--------------------1-1---3---]

[--V-------------------------------V------------------------------]

| |

\--------(upward rakes)-------/

 

INTERLUDE

 

Guitar 1 (clean - harmonics)

 

[-----------------------------------------------------------------]

[------------------<7>-------<7>-<7>-------------------------<7>--]

[------------<7>---------<5>--------------------------------------]

[------<7>-----------------------------------<3>---------<3>------]

[--------------------------------------<3>---------<3>------------]

[-----------------------------------------------------------------]

 

[-----------------------------------------------------------------]

[------<7>-----------------------------<7>------------------------]

[------------------<7>---<9>-<7>-<9>---------------<7>-------<7>--]

[--------------------------------------------------------<7>------]

[<3>---------<3>-----------------------------<3>------------------]

[-----------------------------------------------------------------]

 

Guitar 2 (acoustic)

 

[-----------------------------------------------------------------]

[-3-3-3-3---3-3-3---3---3---3-3-3-3-3-3-3---3-3-3---3---3---3-3-3-]

[-0-0-0-0---0-0-0---0---0---0-0-0-0-0-0-0---0-0-0---0---0---0-0-0-]

[-4-4-4-4---4-4-4---4---4---4-4-4-5-5-5-5---5-5-5---5---5---5-5-5-]

[-5-5-5-5---5-5-5---5---5---5-5-5-5-5-5-5---5-5-5---5---5---5-5-5-]

[-0-0-0-0---0-0-0---0---0---0-0-0-0-0-0-0---0-0-0---0---0---0-0-0-]

 

then

 

[---------------------------------------------------0-------------]

[-3---3---3-3-3-3---3---3---3-3-3-3---3---3-3-3-3---3-------------]

[-2---2---2-2-2-2---2---2---2-2-2-0---0---0-0-0-0---0---0-0---0---]

[-0---0---0-0-0-0---0---0---0-0-0-3---3---3-3-3-3---3---3-3---2---]

[-2---2---2-2-2-2---2---2---2-2-2-1---1---1-1-1-1---1---1-1---3---]

[-----------------------------------------------------------------]

 

 

********************

* Tabbed: 10/27/99 *

 

 

Return to my to my STP tabs page

The Tablature is Copyright its respective owners.

Sign Up For My Newsletter
Subscribe | Unsubscribe

Site Map | Disclaimer | Privacy Policy | Media Kit | Submissions/Corrections

Website © 2000-2014 mattsmusicpage.com. All rights reserved.

Legal & DMCA: Matt's Music Page has been providing lyrics and tabs in a legal way, paying royalties each year to a few organizations. Then, all lyrics and tabs were removed from the site. Now, there's a new owner to the site, which purchased it August 26, 2014, and he is in negotiation to obtain licensing from BMI at the moment. If you have a specific DMCA request -- please do not hesitate to contact me via the contact button on top. I will do my very best to keep this site fully legal.

Get our toolbar!

 

Black Cats~Music & Lyrics Illustrated~Two Little Girls Loved One Boy~Tug of War
$8.0
Black Cats~Music & Lyrics Illustrated~Two Little Girls Loved One Boy~Tug of War picture


MICHAEL JACKSON - THRILLER - QE 38112 - Vinyl VG++ - Cover VG+ w Lyric Liner
$9.99
MICHAEL JACKSON - THRILLER - QE 38112 - Vinyl VG++ - Cover VG+ w Lyric Liner picture


1982 Press Photo Workers attach steel bars on Lyric Centre building in Houston
$8.0
1982 Press Photo Workers attach steel bars on Lyric Centre building in Houston picture


ALEC GUINESS-1970's PLAYBILL-LYRIC THEATER,LONDON-HABEAS CORPUS
$2.45
 ALEC GUINESS-1970's PLAYBILL-LYRIC THEATER,LONDON-HABEAS CORPUS picture


Drag-on Dragoon 3 Official Score Book Piano Solo Music Vocal Lyrics Japan NEW
$29.99
Drag-on Dragoon 3 Official Score Book Piano Solo Music Vocal Lyrics Japan NEW picture