Your One-Stop Source For
Music Lyrics
Bass and Guitar Tabs
and More...
Music Lyrics Bass and Guitar Tabs

 

The Tabs Are Below

Learn To Read Tab
Chords Handbook
Corrections & Additions
Get Official Tab
STP tabs @ 911Tabs

 

STP

Pretty Penny

 

 

By: David Harrison (blaze@interlog.com)

Song: "Pretty Penny" by "Stone Temple Pilots"

Album: "Purple"

 

Someone requested this a long time ago and since I just got back into guitar

again I thought I should tab it out for him. Sorry it took me soo long but I

finally did it. Anyway, the "Verse" strumming changes a bit throughout the

song so your gonna half to improvise a little bit. Not much, however.

 

Tuning: Standard

 

 

[Verse] - 3x

=======

E|---------------------3---3-------3---3---x---x---|

B|---------------------2---2-------2---2---x---x---|

G|-4-------4---2-------0---0-------0---0---x---x---| 3x

D|-2-------2---2-------0---0-------0---0---x---x---| Then

A|-2-------2---2-------x-------------------x---x---|

E|-0-------0---0-------3-------------------x---x---|

 

E|---------------------3---3-------3---3---3---3---|

B|---------------------2---2-------2---2---2---2---|

G|-4-------4---2-------0---0-------0---0---0---0---|

D|-2-------2---2-------0---0---0---0---0---0---0---|

A|-2-------2---2-------x-------x-------------------|

E|-0-------0---0-------3-------3-------------------|

 

 

[Chorus] - 1x

========

E|-0------0------0------0------0------0------0-----|

B|-4b-----4------2------0------0h2----2h4----4-----|

G|-------------------------------------------------| 3x

D|-------------------------------------------------| Then

A|-------------------------------------------------|

E|-------------------------------------------------|

 

E|-0------0------0------0----------|

B|-4b-----4------2------0----------|

G|---------------------------------|

D|---------------------------------|

A|---------------------------------|

E|---------------------------------|

 

 

[Verse] - 2x

 

 

[Chorus] - 1x

 

 

[Verse] - 1x

 

 

[Bridge] - 1x

======== (a second guitar plays an "E" chord along with this)

E|------------------------------------------------------------------------|

B|-7--------7--------7--------7--------7--------7--------7--------7-------|

G|-x--------x--------x--------x--------x--------x--------x--------x-------|

D|-6--------6--------6--------6--------6--------6--------6--------6-------|

A|-7--------7--------7--------7--------7--------7--------7--------7-------|

E|------------------------------------------------------------------------|

 

E|------------------------------------------------------------------------|

B|-9-------10--------9-------10--------9-------10--------9-------10-------|

G|-x--------x--------x--------x--------x--------x--------x--------x-------|

D|-6--------6--------6--------6--------6--------6--------6--------6-------|

A|-7--------7--------7--------7--------7--------7--------7--------7-------|

E|------------------------------------------------------------------------|

 

E|-6--------6--------7--------7--------6--------6--------7--------7-------|

B|-7--------7--------7--------7--------7--------7--------7--------7-------|

G|-x--------x--------x--------x--------x--------x--------x--------x-------|

D|-6--------6--------6--------6--------6--------6--------6--------6-------|

A|(7)------(7)------(7)------(7)------(7)------(7)------(7)------(7)------|

E|------------------------------------------------------------------------|

 

E|-6--------6--------7--------7--------6--------6--------0--0--0--0--0--0-|

B|-7--------7--------7--------7--------7--------7--------0--0--0--0--0--0-|

G|-x--------x--------x--------x--------x--------x--------x--x--x--x--x--x-|

D|-6--------6--------6--------6--------6--------6--------6--6--6--6--6--6-|

A|(7)------(7)------(7)------(7)------(7)------(7)-------7--7--7--7--7--7-|

E|------------------------------------------------------------------------|

 

 

[Verse] - 3x

 

 

[Chorus] - 1x

 

 

[Verse] - 1x

 

 

[Bridge] - 1x

 

 

[Verse] - 1x

 

 

[End] - 1x

=====

E|-0------------------|

B|-0------------------|

G|-1------------------|

D|-2------------------|

A|-2------------------|

E|-0------------------|

 

 

Return to my to my STP tabs page

The Tablature is Copyright its respective owners.

Sign Up For My Newsletter
Subscribe | Unsubscribe

Site Map | Disclaimer | Privacy Policy | Media Kit | Submissions/Corrections

Website © 2000-2014 mattsmusicpage.com. All rights reserved.

Legal & DMCA: Matt's Music Page has been providing lyrics and tabs in a legal way, paying royalties each year to a few organizations. Then, all lyrics and tabs were removed from the site. Now, there's a new owner to the site, which purchased it August 26, 2014, and he is in negotiation to obtain licensing from BMI at the moment. If you have a specific DMCA request -- please do not hesitate to contact me via the contact button on top. I will do my very best to keep this site fully legal.

Get our toolbar!