Your One-Stop Source For
Music Lyrics
Bass and Guitar Tabs
and More...
Music Lyrics Bass and Guitar Tabs

 

The Tabs Are Below

Learn To Read Tab
Chords Handbook
Corrections & Additions
Get Official Tab
STP tabs @ 911Tabs

This Plush song is the acoustic version. It is just the vocals and the guitar so it’s different than the other acoustic versions. It’s a really rare and different version of the song so don’t try to correct it unless you’ve heard this version.

The Tuning is drop D down one full step.

 

Play intro slow and simple.

Intro-

|-3--3-----3---------------3--3-----3------3-3-3--|----|

|-3--3-----2---------------1--1-----0------0-1-2--|----|

|-0--0-----3---------------2--2-----0------0-0-0--|----|

|-0--0-----0---------------0--0-----0------0-0-0--|-2x-|

|-------------------------------------------------|----|

|-------------------------------------------------|----|

 

Verse 1-

And I feel that times a wasted go….

-3-3---2-2---1-1---0-0---3-3-(3///5)---(5)-------------|----|The last part

-3-3---3-3---1-1---1-1---3-3-(3///5)---(5)-------------|----|on this is

-0-0---2-2---2-2---0-0---3-3-(3///5)---(5)-------------|----|optional.

-0-0---0-0---3-3---2-2---5-5-(5///7)---(7)-------------|-2x-|

-2-2---0-0---3-3---3-3---6-6-(6///8)---(8)-------------|----|

-3-3---x-x---1-1---x-x---x-x---------------------------|----|

 

and I feel it…..

--2-----3----3----3--|----|

--3-----3----3----3--|----|

--2-----0----0----0--|-4x-|

--0-----2----0----2--|----|

--------3----2----3--|----|

-------------3-------|----|

 

Pre-Chorus-

Where you goin till tomorrow

|---3-3-3-x-3-3-3-------5-5-5-x-5-5-----|----|

|---3-3-3-x-3-3-3-------5-5-5-x-5-5-----|----|

|---3-3-3-x-3-3-3-------5-5-5-x-5-5-----|----|

|---5-5-5-x-5-5-5-------7-7-7-x-7-7-----|-4x-|

|---6-6-6-x-6-6-6-------8-8-8-x-8-8-----|----|

|---x-x-x-x-x-x-x-------x-x-x-x-x-x-----|----|

 

Intro-

 

|-3--3-----3---------------3--3-----3------3-3-3--|----|-

|-3--3-----2---------------1--1-----0------0-1-2--|----|

|-0--0-----3---------------2--2-----0------0-0-0--|----|

|-------------------------------------------------|-2x-|

|-------------------------------------------------|----|

|-------------------------------------------------|----|

 

Verse-

And I feel so much depends on the weather…

-3-3---2-2---1-1---0-0---3-3-(3///5)---(5)-------------|----|The last part

-3-3---3-3---1-1---1-1---3-3-(3///5)---(5)-------------|----|on this is

-0-0---2-2---2-2---0-0---3-3-(3///5)---(5)-------------|----|optional.

-0-0---0-0---3-3---2-2---5-5-(5///7)---(7)-------------|-2x-|

-2-2---0-0---3-3---3-3---6-6-(6///8)---(8)-------------|----|

-3-3---x-x---1-1---x-x---x-x---------------------------|----|

 

And I feel it….

--2-----3----3----3--|----|

--3-----3----3----3--|----|

--2-----0----0----0--|-4x-|

--0-----2----0----2--|----|

--------3----2----3--|----|

-------------3-------|----|

 

Pre-Chorus

Where you goin till tomorrow

|---3-3-3-x-3-3-3-------5-5-5-------|----|

|---3-3-3-x-3-3-3-------5-5-5-------|----|

|---3-3-3-x-3-3-3-------5-5-5-------|----|

|---5-5-5-x-5-5-5-------7-7-7-------|-4x-|

|---6-6-6-x-6-6-6-------8-8-8-------|----|

|---x-x-x-x-x-x-x-------x-x-x-------|----|

Chorus

When the dogs do find her………

|------------------------------------------------------------|----|

|------------------------------------------------------------|----|

|------------------------------------------------------------|----|

|--------------------------------------------------7/8888/777|-4x-|

|-5-5-5-5-5---5/3-3-3-3-3--------3-3-3-3-3-3---3---5/6666/555|----|

|-3-3-3-3-3---3/1-1-1-1-1--------1p0-0-0-0-0---0-------------|----|

 

 

End with Intro-

 

-|-3--3-----3---------------3--3-----3------3-3-3--|----|

-|-3--3-----2---------------1--1-----0------0-1-2--|----|

-|-0--0-----3---------------2--2-----0------0-0-0--|----|

-|-0--0-----0---------------0--0-----0------0-0-0--|-4x-|

-|-------------------------------------------------|----|

-|-------------------------------------------------|----|

 

That’s it. That’s perfect I think. This is the only tab for this version I think.

Lyrics

 

Plush

Verse

And I feel that time's a wasted go so where ya goin' till tomorrow and I feel that these are lies to come would you even care and I feel it where ya going till tomorrow where ya going with the mask I found and I feel and I feel when the dogs begin to smell her will she smell alone and I feel so much depends on the weather so is it raining in your bedroom and I see that these are eyes of disarray would you even care when the dogs do find her got time, time to wait for tomorrow

 

Return to my to my STP tabs page

The Tablature is Copyright its respective owners.

Sign Up For My Newsletter
Subscribe | Unsubscribe

Site Map | Disclaimer | Privacy Policy | Media Kit | Submissions/Corrections

Website © 2000-2014 mattsmusicpage.com. All rights reserved.

Legal & DMCA: Matt's Music Page has been providing lyrics and tabs in a legal way, paying royalties each year to a few organizations. Then, all lyrics and tabs were removed from the site. Now, there's a new owner to the site, which purchased it August 26, 2014, and he is in negotiation to obtain licensing from BMI at the moment. If you have a specific DMCA request -- please do not hesitate to contact me via the contact button on top. I will do my very best to keep this site fully legal.

Get our toolbar!