Your One-Stop Source For
Music Lyrics
Bass and Guitar Tabs
and More...
Music Lyrics Bass and Guitar Tabs

 

The Tabs Are Below

Learn To Read Tab
Chords Handbook
Corrections & Additions
Get Official Tab
STP tabs @ 911Tabs

Scott Weiland Guitar Tablature

"Mockingbird Girl"

Transcribed by Dan (downtheriver@lycos.com)

 

Down The River

Stone Temple Pilots, Talk Show, Scott Weiland

Guitar & Bass Tablature

http://downtheriver.tripod.com/

 

Standard Tuning

 

INTRO

 

Guitar 1 (clean w/ delay)

[---------------------------------------------------------------]

[---------------------------------------------------------------]

[-2/7-------------2/7---------------2/7---------------2/7-------]

[---0---------------0-----------------0-----------------0-------]

[-----------0---------------0-----------------0-----------------]

[---------------------------------------------------------------]

 

Guitar 2 (clean)

[---------------------------------------------------------------]

[-------7/9-----2-------7/9-----2---------7/9-----2---------7/9-]

[-------7/9-----2-------7/9-----2---------7/9-----2---------7/9-]

[-----7-------2-------7-------2---------7-------2---------7-----]

[---------------------------------------------------------------]

[---------------------------------------------------------------]

 

MAIN RIFF / CHORUS

 

(heavy distortion)

[---------]

[---------]

[---------]

[---------]

[-9-9-7-5-]

[-7-7-5-3-] <- intro only

 

[-----------------------------------------------------------------]

[-----------------------------------------------------------------]

[-----------------------------------------------------------------]

[-----------------------------------------------------------------]

[-2---2--/9-9-9---2---2--/9-9-9---2---2--/9-9-9---2---2--/9-9-9---]

[-0---0--/7-7-7---0---0--/7-7-7---0---0--/7-7-7---0---0--/7-7-7---]

 

VERSE

 

(clean w/ flanger)

[---0---------------7-----7---------0---------------7-----7-------]

[-------12------------8-----------------12------------8-----------]

[-9---------9-----------7---7-9---9---------9-----------7---7-9---]

[-----11----------9-------------9-----11----------9-------------9-]

[-----------------------------------------------------------------]

[-----------------------------------------------------------------]

 

[---0---------------7-----7---------0---------------------0-0-----]

[-------12------------8-----------------12------------------------]

[-9---------9-----------7---7-9---9---------9-----------11--------]

[-----11----------9-------------9-----11------------9-9-----------]

[-------------------------------------------------12--------------]

[-----------------------------------------------------------------]

 

PRECHORUS

 

Guitar 1 (heavy distortion)

[---------------------------------]

[---------------------------------]

[---------------------------------]

[---------------------------------]

[-9---9---9---9---9---9---9-9-7-5-]

[-7---7---7---7---7---7---7-7-5-3-]

 

Guitar 2 (heavy distortion)

 

W W W W W W W W

[---|---|---|---|---|---|---|---|-]

[-12|-12|-12|-12|-12|-12|-12|-12|-]

[-14/-14/-14/-14/-14/-14/-14/-14/-]

[---------------------------------]

[---------------------------------]

[---------------------------------]

 

INTERLUDE

 

(heavy distortion w/ pitch shifter on fifths)

 

W W W

[--|----------------------|-------------------------------|----]

[--|----------------------|-------------------------------|----]

[-9/---------------------9/----9-------------------------6/----]

[--------------------------------------------------------------]

[--------------------------------------------------------------]

[--------------------------------------------------------------]

 

W W W

[----|--------------------|-------------------------------|----]

[----|--------------------|-------------------------------|----]

[-(6)/-------------------6/----6-------------------------9/----]

[--------------------------------------------------------------]

[--------------------------------------------------------------]

[--------------------------------------------------------------]

 

W W W

[----|--------------------|--|----------------------------|----]

[----|--------------------|--|----------------------------|----]

[-(9)/------------------14/--\(14)----------------------16/----]

[--------------------------------------------------------------]

[--------------------------------------------------------------]

[--------------------------------------------------------------]

 

W W

[-------------------------|------|-----------------------------]

[-------------------------|------|-----------------------------]

[-16--------------------18/----18/-----------------------------]

[--------------------------------------------------------------]

[--------------------------------------------------------------]

[--------------------------------------------------------------]

 

 

********************

* Tabbed: 03/02/00 *

 

 

Return to my to my STP tabs page

The Tablature is Copyright its respective owners.

Sign Up For My Newsletter
Subscribe | Unsubscribe

Site Map | Disclaimer | Privacy Policy | Media Kit | Submissions/Corrections

Website © 2000-2014 mattsmusicpage.com. All rights reserved.

Legal & DMCA: Matt's Music Page has been providing lyrics and tabs in a legal way, paying royalties each year to a few organizations. Then, all lyrics and tabs were removed from the site. Now, there's a new owner to the site, which purchased it August 26, 2014, and he is in negotiation to obtain licensing from BMI at the moment. If you have a specific DMCA request -- please do not hesitate to contact me via the contact button on top. I will do my very best to keep this site fully legal.

Get our toolbar!