Your One-Stop Source For
Music Lyrics
Bass and Guitar Tabs
and More...
Music Lyrics Bass and Guitar Tabs

 

The Tabs Are Below

Learn To Read Tab
Chords Handbook
Corrections & Additions
Get Official Tab
STP tabs @ 911Tabs

Stone Temple Pilots Guitar Tablature

"MC5"

Transcribed by Dan (downtheriver@lycos.com)

 

Down The River

Stone Temple Pilots, Talk Show, Scott Weiland

Guitar & Bass Tablature

http://downtheriver.tripod.com/

 

Standard Tuning

 

INTRO

 

[-------------]

[-------------]

[-------------]

[-5-5---5---7-]

[-----7-------]

[-------------]

 

CHORUS

 

[---------------------------------]

[---------------------------------]

[---------------------------------]

[-5-5---5---7-------5-----5-5-----]

[-----7-------0---------7-----7-7-]

[---------------------------------]

 

VERSE

 

[---------------------------------]

[---------------------------------]

[---------------------------------]

[---------------------------------]

[-5-5---5---7---------------------]

[-----7-------0-----3---0-3-3-0-0-]

 

VARIATION

 

[---------------------------------------------------------------------------------]

[---------------------------------------------------------------------------------]

[---------------------------------------------------------------------------------]

[-5-5---5---7-----5-5---5---7-----5-5---5---7-----------5-----7-----8-----7---5---]

[-----7-------0-------7-------0-------7-----------7-----3-----5-----6-----5---3---]

[-------------------------------------------------5-------------------------------]

 

SOLO (rhythm slightly adjusted for bends)

H

[--------------------|-----------------]

[-------------------7/\(7)\(5)-7-5-----]

[-------------------7/\(7)\(5)-7-5-----]

[-5-5---5---7----------------------7-5-]

[-----7-------0---0--------------------]

[--------------------------------------]

 

H

[--------------------|-----------------]

[-------------------7/\(7)\(5)-7-5-----]

[-------------------7/\(7)\(5)-7-5-----]

[-5-5---5---7----------------------7-5-]

[-----7-------0---0--------------------]

[--------------------------------------]

 

[------------------------------------]

[-------------------/8-8-8--/8-8-8-8-]

[-------------------/9-9-9--/9-9-9-9-]

[-5-5---5---7------------------------]

[-----7-------0---0------------------]

[------------------------------------]

 

H H

[--------------------|----------|------]

[-------------------7/\(7)-7-7-7/\(7)--]

[-------------------7/\(7)-7-7-7/\(7)--]

[-5-5---5---7--------------------------]

[-----7-------0---0--------------------]

[--------------------------------------]

 

VARIATION

 

Guitar 1

[---------------------------------]

[---------------------------------]

[---------------------------------]

[-2-2---2---4-------2-----2-2-----]

[-----4-----------------4-----4-4-]

[-------------2-------------------]

 

Guitar 2

[---------------0---------0-0-----]

[-----------2-------2---2-----2-2-]

[-4-4-3-4-------------------------]

[---------------------------------]

[---------------------------------]

[---------------------------------]

 

********************

* Tabbed: 05/21/00 *

 

 

Return to my to my STP tabs page

The Tablature is Copyright its respective owners.

Sign Up For My Newsletter
Subscribe | Unsubscribe

Site Map | Disclaimer | Privacy Policy | Media Kit | Submissions/Corrections

Website © 2000-2014 mattsmusicpage.com. All rights reserved.

Legal & DMCA: Matt's Music Page has been providing lyrics and tabs in a legal way, paying royalties each year to a few organizations. Then, all lyrics and tabs were removed from the site. Now, there's a new owner to the site, which purchased it August 26, 2014, and he is in negotiation to obtain licensing from BMI at the moment. If you have a specific DMCA request -- please do not hesitate to contact me via the contact button on top. I will do my very best to keep this site fully legal.

Get our toolbar!