Your One-Stop Source For
Music Lyrics
Bass and Guitar Tabs
and More...
Music Lyrics Bass and Guitar Tabs

 

The Tabs Are Below

Learn To Read Tab
Chords Handbook
Corrections & Additions
Get Official Tab
STP tabs @ 911Tabs

SONG: Hello It's Late

ARTIST: Stone Temple Pilots

ALBUM: Shangri-La Dee Da

 

Tabbed by Ryan Liddell

 

INTRO

 

Bass plays this:

 

G|-----------------------------|

D|-----------------------------|

A|-----------------------------|

E|--3--4--5---4----0--4--5---4-|

 

Guitar plays this: (listen to song for strumming pattern)

 

E Esus

E|--0--0--0---0----0--0--0---0-|

B|--0--0--0---0----0--0--0---0-|

G|--1--1--2---1----1--1--2---1-|

D|--2--2--2---2----2--2--2---2-|

A|--2--2--2---2----2--2--2---2-|

E|--0--0--0---0----0--0--0---0-|

 

VERSE (again, listen for the pattern)

 

Em7 Em6 Em? Em

E|-0--0--0--0--0--0--0--0--0--0--0--0--0--0--0--0-|

B|-3--3--3--3--2--2--2--2--1--1--1--1--0--0--0--0-|

G|-0--0--0--0--0--0--0--0--0--0--0--0--0--0--0--0-|

D|-2--2--2--2--2--2--2--2--2--2--2--2--2--2--2--2-|

A|-2--2--2--2--2--2--2--2--2--2--2--2--2--2--2--2-|

E|-0--0--0--0--0--0--0--0--0--0--0--0--0--0--0--0-|

 

PRECHORUS ("Nothing matters again..")

 

A B

E|-5--5--5-5-5--7--7--7-7-7-|

B|-5--5--5-5-5--7--7--7-7-7-|

G|-6--6--6-6-6--8--8--8-8-8-| X 2

D|-7--7--7-7-7--9--9--9-9-9-|

A|-7--7--7-7-7--9--9--9-9-9-|

E|-5--5--5-5-5--7--7--7-7-7-|

 

CHORUS (But I'm just sittin'...)

 

C D C D

E|-0---------0---------0---------0--

B|-1---------3---------1---------3--

G|-0---------2---------0---------2--

D|-2---------0---------2---------0--

A|-3-------------------3------------

E|----------------------------------

 

("It's just a game...")

C D C Bm C D

E|-----7----------10----------7----------5----------7----------10-|

B|---5---5------7----7------5---5------7---7------5---5------7----|

G|-5----------7-----------5----------7----------5----------7------|

D|----------------------------------------------------------------|

A|----------------------------------------------------------------|

E|----------------------------------------------------------------|

Go back to the intro to finish off the chorus

 

SOLO

F G F

E|----------------------------------------------

B|-10\5~--5---8--10----------------5------------

G|--------------------7--5---7--5-----7--5------

D|------------------------------------------7~~-

A|----------------------------------------------

E|----------------------------------------------

 

G F

E|------------------------------------------------

B|---------------------------------------10\5~--5-

G|--5h7-------------------------------------------

D|-------7--5-------------------------------------

A|--------------------3--5--5--5b6--3-------------

E|---------------3--5-----------------------------

 

G A

E|----------------------5---5---8b9~--5---5---5b-5b-

B|-8--10------------------8---8---------8---8-------

G|---------7--5---7--5------------------------------

D|--------------------------------------------------

A|--------------------------------------------------

E|--------------------------------------------------

A

E|--5-------------------------------------------------------------9-10-9--10\5~~

B|----8-5---5-------------------------------------5-7b8~~~---7b8~---------------

G|--------7---7-5---7b-5---5b---------------5---7-------------------------------

D|----------------7------7----7--0------5-7-------------------------------------

A|---------------------------------0--/7----------------------------------------

E|------------------------------------------------------------------------------

 

 

 

Return to my to my STP tabs page

The Tablature is Copyright its respective owners.

Sign Up For My Newsletter
Subscribe | Unsubscribe

Site Map | Disclaimer | Privacy Policy | Media Kit | Submissions/Corrections

Website © 2000-2014 mattsmusicpage.com. All rights reserved.

Legal & DMCA: Matt's Music Page has been providing lyrics and tabs in a legal way, paying royalties each year to a few organizations. Then, all lyrics and tabs were removed from the site. Now, there's a new owner to the site, which purchased it August 26, 2014, and he is in negotiation to obtain licensing from BMI at the moment. If you have a specific DMCA request -- please do not hesitate to contact me via the contact button on top. I will do my very best to keep this site fully legal.

Get our toolbar!