Your One-Stop Source For
Music Lyrics
Bass and Guitar Tabs
and More...
Music Lyrics Bass and Guitar Tabs

 

The Tabs Are Below

Learn To Read Tab
Chords Handbook
Corrections & Additions
Get Official Tab
STP tabs @ 911Tabs

 

Daisy

by Stone Temple Pilots

tabbed by Nugget 82

 

Chords ( * = use thumb for bottom string )

used: Em7 B7 Cmaj7* Am6/9* B7#5 D E D7/13* G B7sus4 B7 type 2

--7-- --7-- --7-- --7-- --7-- --x-- --x-- ---x--- --3-- --0-- --2--

--8-- --7-- --8-- --7-- --8-- --7-- --9-- --12-- --3-- --0-- --0--

--7-- --8-- --9-- --5-- --8-- --7-- --9-- --11-- --4-- --2-- --2--

--9-- --7-- --9-- --7-- --7-- --7-- --9-- --10-- --5-- --x-- --1--

--7-- --9-- --x-- --x-- --x-- --5-- --7-- ---x--- --5-- --2-- --2--

--x-- --7-- --8-- --5-- --7-- --x-- --x-- --10-- --3-- --x-- --x--

 

Part 1 use a slide

Em7 B7 Em7 B7

E------------------------|-----------------------|--------------------------|---------------------------|---------------------

B---------------------0-|--/5------7/8---7---|--(7)------8/10---8---|--(8)------10/12---7---|--(7)------0/8---7

G------------------------|----------------------|--------------------------|----------------------------|---------------------

 

Cmaj7 Am6/9 B7 B7#5

E-----------------------|---------------------------|------------------------|--------------------------|

B--5-----7/8------7--|--(7)-----8/10---12~~|~~(12)~~~~~~~|~(12)~~~~~~~~~|

G-----------------------|---------------------------|------------------------|--------------------------|

 

 

Part 2

Cmaj7 D E Cmaj7

E-----------------------|--------------------------|----------------------------|----------------------|-----------------------

B--/12-----10\8--7--|--(7)------8/10---9~~|~~(9)~~~~~~~~~|~~(9)~~~~~~~|--/12------10\8--7--

G------------------------|--------------------------|--------------------------|---------------------|-------------------------

 

D E Cmaj7 D7/13

E--------------------------|-------------------------|--------------------------|------------------------|--------------------|

B--(7)----8/10-----12~|~(12)~~~~~~~~|~(12)~~~~~~~~~~|-\12-----10\8--7---|--(7)--8/10--8~|

G--------------------------|------------------------|----------------------------|-----------------------|--------------------|

 

G B7sus B7(type 2)

E--------------------------|----------------------------|

B~(8)~~~~~~~~~~|-----------------------------|

G--------------------------|------------------------------|

 

 

Song Structure

play part 1 twice

play part 2 once

play part 1 once

play part 2 once

 

E-mail me your requests for songs that you can't find and really want.

Please give me any Ash tab that you have.

If you need the rythem (<I know its not spelled right), email me for that i'll get it you A.S.A.P.

Thanxs alot

Nugget 82@aol.com

 

 

Return to my to my STP tabs page

The Tablature is Copyright its respective owners.

Sign Up For My Newsletter
Subscribe | Unsubscribe

Site Map | Disclaimer | Privacy Policy | Media Kit | Submissions/Corrections

Website © 2000-2014 mattsmusicpage.com. All rights reserved.

Legal & DMCA: Matt's Music Page has been providing lyrics and tabs in a legal way, paying royalties each year to a few organizations. Then, all lyrics and tabs were removed from the site. Now, there's a new owner to the site, which purchased it August 26, 2014, and he is in negotiation to obtain licensing from BMI at the moment. If you have a specific DMCA request -- please do not hesitate to contact me via the contact button on top. I will do my very best to keep this site fully legal.

Get our toolbar!

 

Hard Rock Pin Las Vegas 4th of july red white and blue guitar
$5.0
Hard Rock Pin Las Vegas 4th of july red white and blue guitar picture


Hard Rock Pin Hollywood Fl Bell Girl with dice luggage and guitar
$5.0
Hard Rock Pin Hollywood Fl Bell Girl with dice luggage and guitar picture


Hard Rock Pin Las Vegas King of Clubs Guitar rare only 3 lines of info on back
$5.0
Hard Rock Pin Las Vegas King of Clubs Guitar rare only 3 lines of info on back picture


Hard Rock Pin Edmonton guitar pin
$5.0
Hard Rock Pin Edmonton guitar pin picture


Lladro Guitar Boy #4614 - Beautiful Piece of Lladro
$109.0
Lladro Guitar Boy #4614 - Beautiful Piece of Lladro picture