Your One-Stop Source For
Music Lyrics
Bass and Guitar Tabs
and More...
Music Lyrics Bass and Guitar Tabs

 

The Tabs Are Below

Learn To Read Tab
Chords Handbook
Corrections & Additions
Get Official Tab
STP tabs @ 911Tabs

Stone Temple Pilots Guitar Tablature

Transcribed by Prodigidan (prodigidan@hotmail.com)

"Church On Tuesday"

 

Standard Tuning

(light distortion)

 

INTRO

 

[---------2-----2-----2-----2-2-----------2-----2-----2-----2-2---]

[---------2-----2-----2-----2-2-----------2-----2-----2-----2-2---]

[---------2-----2-----2-----2-2-----------2-----2-----2-----2-2---]

[-2/4-4---4-----4-----4-----4-4---2/4-4---4-----4-----4-----4-4---]

[-2---2---2-----2-----2-----2-2---2---2---2-----2-----2-----2-2---]

[-----------------------------------------------------------------]

H

 

VERSE

 

W

[-0|-|----------------------------2-----2---2-2-----------]

[-0|-|----------------------------2-----2---2-2-----------]

[-6/-\(6)-4---2-------4-----------2-----2---2-2-----------]

[-------------------------2/4-----------------------------]

[-------------------------2-------------------------------]

[---------------------------------------------------------]

H

(let 1st & 2nd ring) (let 4th & 5th ring)

 

PRE CHORUS

 

[-------------------------------------0-----------------------]

[-------------------------------------0-----------------------]

[-----------------------------1-------1-----1---1-1-----------]

[-----------------------------2-------2-----2---2-2-----------]

[-------------0---2---4---5---2-------2-----2---2-2-----------]

[-0---2---3-------------------0-------0-----0---0-0-------0---]

 

CHORUS

 

[-----------------------------------------------------------------]

[-----------------------------------------------------------------]

[-1/2-2---2-----2---1-2-----2-2-x-1-2-2---2-----2---1-2-----2-2-1-]

[-0-0-0---0-----0---0-0-----0-0-x-x-x-x---x-----x---x-x-----x-x-x-]

[-------------------------------x-3-3-3---3-----3---3-3-----3-3-3-]

[-----------------------------------------------------------------]

 

[-----------------------------------------0-----------------------]

[-----------------------------------------0-----------------------]

[-1-2-2---2-----2-2-1-2-----2-2-x-1-------1-----1---1-1---1-------]

[-x-x-x---x-----x-x-x-x-----x-x-x-2-------2-----2---2-2---2-------]

[-2-2-2---2-----2-2-2-2-----2-2-x-2-------2-----2---2-2---2-------]

[---------------------------------0-------0-----0---0-0---0-------]

 

[-----------------------------------------------------------------]

[-----------------------------------------------------------------]

[-1/2-2---2-----2---1-2-----2-2-x-1-2-2---2-----2---1-2-----2-2-1-]

[-0-0-0---0-----0---0-0-----0-0-x-x-x-x---x-----x---x-x-----x-x-x-]

[-------------------------------x-3-3-3---3-----3---3-3-----3-3-3-]

[-----------------------------------------------------------------]

 

[-----------------------------------------------------------------]

[-----------------------------------------------------------------]

[-1-2-2---2-----2-2-1-2-----2-2-x---------------------------------]

[-x-x-x---x-----x-x-x-x-----x-x-x-2-------------------------------]

[-2-2-2---2-----2-2-2-2-----2-2-x-x-------------------------------]

[---------------------------------0-------------------------------]

(let ring)

 

PRE CHORUS VARIATION (third prechorus)

 

[-----------------------------------------------------------------]

[-----------------------------------------------------------------]

[-----------------------------------------------------------------]

[-----------------------------------------------------2---4---5---]

[-------------0---2---4---5-----------0---2---4---5---------------]

[-0---2---3-------------------3-----------------------------------]

 

 

********************

* Tabbed: 10/28/99 *

 

 

Return to my to my STP tabs page

The Tablature is Copyright its respective owners.

Sign Up For My Newsletter
Subscribe | Unsubscribe

Site Map | Disclaimer | Privacy Policy | Media Kit | Submissions/Corrections

Website © 2000-2014 mattsmusicpage.com. All rights reserved.

Legal & DMCA: Matt's Music Page has been providing lyrics and tabs in a legal way, paying royalties each year to a few organizations. Then, all lyrics and tabs were removed from the site. Now, there's a new owner to the site, which purchased it August 26, 2014, and he is in negotiation to obtain licensing from BMI at the moment. If you have a specific DMCA request -- please do not hesitate to contact me via the contact button on top. I will do my very best to keep this site fully legal.

Get our toolbar!