Your One-Stop Source For
Music Lyrics
Bass and Guitar Tabs
and More...
>Music Lyrics Bass and Guitar Tabs

 

The Tabs Are Below

Learn To Read Tab
Chords Handbook
Corrections & Additions
Get Official Tab
STP tabs @ 911Tabs

 

Wicked Garden

STP

Nick Key

 

Intro/Outro

2x

||--------------|

||-5------------|

||---5-0----5-0-|

||--------3-----|

 

Verse

-----------------------------------------------

-----------------------------------------------

-------------------5-4-------------------------

-3h5-5-5-5-5-5-5-5------3h5-5-5-5-5-5-5-5-5-3--

 

Chorus 3x

-------------------------------------------------

-------------------------------------------------

-------5--5-5-5-0-2--2-2-2-2-2-2-2-2-2-2-2-2-0---

-2-2-0-------------------------------------------

Fig. 2

------------------|------------|

------------------|------------|

-------5--5-5-5-5-|------------|

-2-2-0------------|-0-0-2-3-2--|

 

Post Chorus

------------------------------------------------

------------------------------------------------

------------------------------------------------

--3--3-2-3--2-3--5-5--0-2-3--3-2-3--2-3--5-5----

 

Play Riff 1 again

Chorus

Post Chorus

Intro

 

Return to my to my STP bass tabs page

The Tablature is Copyright its respective owners.

Sign Up For My Newsletter
Subscribe | Unsubscribe

Site Map | Disclaimer | Privacy Policy | Media Kit | Submissions/Corrections

Website © 2000-2014 mattsmusicpage.com. All rights reserved.

Legal & DMCA: Matt's Music Page has been providing lyrics and tabs in a legal way, paying royalties each year to a few organizations. Then, all lyrics and tabs were removed from the site. Now, there's a new owner to the site, which purchased it August 26, 2014, and he is in negotiation to obtain licensing from BMI at the moment. If you have a specific DMCA request -- please do not hesitate to contact me via the contact button on top. I will do my very best to keep this site fully legal.

Get our toolbar!

 

Musical Guitar Plays The Rolling Stones She's A Rainbow Ornament NIB (B32)
$5.0
Musical Guitar Plays The Rolling Stones She's A Rainbow  Ornament NIB (B32) picture


Chrome, Black Matte, Rolling Stones Logo
$21.94
Chrome, Black Matte, Rolling Stones Logo picture


Musical Guitar Plays The Rolling Stones Ruby Tuesday Ornament NIB (B32)
$5.0
Musical Guitar Plays The Rolling Stones Ruby Tuesday  Ornament NIB (B32) picture


Musical Guitar Plays The Rolling Stones I'm Free Ornament NIB (B32)
$5.0
Musical Guitar Plays The Rolling Stones I'm Free  Ornament NIB (B32) picture


1978 Gretsch Charlie Watts Rolling Stones Tony Williams Drum Print Ad
$9.99
1978 Gretsch Charlie Watts Rolling Stones Tony Williams Drum Print Ad picture