Your One-Stop Source For
Music Lyrics
Bass and Guitar Tabs
and More...
>Music Lyrics Bass and Guitar Tabs

 

The Tabs Are Below

Learn To Read Tab
Chords Handbook
Corrections & Additions
Get Official Tab
STP tabs @ 911Tabs

 

Big Empty

 

[This was created with TabIt version 1.2]

 

E :| 0---0-0-0-------|0-0-0---0-0-0--- 4|| 3---3---3---3--|

B :| 0---0-0-0-------|1-1-1---1-1-1--- ||| 0---0---0---0--|

G :|*0---0-0-0-------|3-3-3---3-3-3---*|||*0---0---0---0--|

D :|*2---2-2-2-------|2-2-2---2-2-2---*|||*0---0---0---0--|

A :| 2---2-2-2-------|3-3-3---3-3-3--- ||| 2---2---2---2--|

E :| 0---0-0-0-------|0-0-0---0-0-0--- ||| 3---3---3---3--|

 

E :0---0---0---0---|0---0---0---0---|3---3---3---3--- 2|----------------|

B :2---2---2---2---|1---1---1---1---|0---0---0---0--- ||----------------|

G :2---2---2---2---|0---0---0---0---|0---0---0---0---*||------------2-1-|

D :2---2---2---2---|2---2---2---2---|0---0---0---0---*||0---0-------0-0-|

A :0---0---0---0---|3---3---3---3---|2---2---2---2--- ||2---2---0-2-2-2-|

E :0---0---0---0---|0---0---0---0---|3---3---3---3--- ||3---3---1-1-0-0-|

 

 

Return to my to my STP tabs page

The Tablature is Copyright its respective owners.

Sign Up For My Newsletter
Subscribe | Unsubscribe

Site Map | Disclaimer | Privacy Policy | Media Kit | Submissions/Corrections

Website © 2000-2014 mattsmusicpage.com. All rights reserved.

Legal & DMCA: Matt's Music Page has been providing lyrics and tabs in a legal way, paying royalties each year to a few organizations. Then, all lyrics and tabs were removed from the site. Now, there's a new owner to the site, which purchased it August 26, 2014, and he is in negotiation to obtain licensing from BMI at the moment. If you have a specific DMCA request -- please do not hesitate to contact me via the contact button on top. I will do my very best to keep this site fully legal.

Get our toolbar!

 

C36/ Easter Greetings Holiday Postcard 1923 Dressed Rabbit Playing Banjo 32
$7.0
C36/ Easter Greetings Holiday Postcard 1923 Dressed Rabbit Playing Banjo 32 picture


MEMPHIS PROTOTYPE GOLD BANJO & BLUE GUITAR TREBLE CLEF NOTE Hard Rock Cafe PIN
$39.99
MEMPHIS PROTOTYPE GOLD BANJO & BLUE GUITAR TREBLE CLEF NOTE Hard Rock Cafe PIN picture


OLD LARGE PHOTO, AUSTRALIAN BUSH PET, BANJO PATERSON c1905
$5.69
OLD LARGE PHOTO, AUSTRALIAN BUSH PET, BANJO PATERSON c1905 picture


FENDER BANJO ( CONCERT TONE 5-STRING + 2 ) 1967 Vintage Jazz magazine PROMO Ad
$15.95
FENDER BANJO ( CONCERT TONE 5-STRING + 2 ) 1967 Vintage Jazz magazine PROMO Ad picture


Denneys Harley Davidson Lrg t shirt Branson MO Guitar Banjo Retro Microphone
$8.79
Denneys Harley Davidson Lrg t shirt Branson MO Guitar Banjo Retro Microphone picture