Your One-Stop Source For
Music Lyrics
Bass and Guitar Tabs
and More...
>Music Lyrics Bass and Guitar Tabs

 

The Tabs Are Below

Learn To Read Tab
Chords Handbook
Corrections & Additions
Get Official Tab
STP tabs @ 911Tabs

 

Big Bang Baby

Stone Temple Pilots

Tabbed AltGuitar

Note: This is one of my few text tabs, most of mine are

in TabIt form. (This was extracted from a TabIt

file I wrote)

For More Really Cool, and Accurate Tab Type:

AltGuitar

In file search

 

E :----------------|------------------|----------------|---------------- 3|

B :----------------|------------------|----------------|---------------- ||

G :----------------|--------------(7)-|----------------|--------------9-*||

D :------------7-6-|5-5-4-3--------7--|------------7-6-|5-5-----------9-*||

A :2-2-5-6-7-7-5-4-|3-3-2-1-5-5-7--5--|2-2-5-6-7-7-5-4-|3-3-9-8-7-7-9-7- ||

E :0-0-3-4-5-5-----|--------3-3-5-----|0-0-3-4-5-5-----|----7-6-5-5-7--- ||

 

E :----------------|------------------|----------------|

B :----------------|------------------|----------------|

G :----------9---5-|(5)-5-5-5-5-5---2-|--2-2-2-2-2-2---|

D :5-5-------9---5-|(5)-5-5-5-5-5---2-|--2-2-2-2-2-2-0-|

A :3-3-9-8-9-7-7-3-|(3)-3-3-3-3-3-0-0-|--0-0-0-0-0-0---|

E :----7-6-7---5-3-|(3)---------------|----------------|

 

E :-------0--------0-------|--------0-----0-----|----------------|

B :0------0-------(0)---0--|(0)-----0---0-------|----------------|

G :1^-(1)---1-(2)-----2-1^-|(1)-(1)---1-----2-0-|5-5-5-5-5-5---7-|

D :------------------------|--------------------|5-5-5-5-5-5---7-|

A :------------------------|--------------------|3-3-3-3-3-3-0-5-|

E :------------------------|--------------------|--------------5-|

 

E :----------------|0---0-----0-------|0-----0---------0-----|

B :----------------|0---0-----0-------|0-----0---------0-----|

G :--7-7-----------|2---2---2-2---(2)-|2-(2)-2-(2)-(2)-2-----|

D :--7-7---7---7-7-|------------------|----------------------|

A :--5-5---5---5-5-|------------------|----------------------|

E :--5-5---5-5-5-5-|------------------|----------------------|

 

 

Return to my to my STP tabs page

The Tablature is Copyright its respective owners.

Sign Up For My Newsletter
Subscribe | Unsubscribe

Site Map | Disclaimer | Privacy Policy | Media Kit | Submissions/Corrections

Website © 2000-2014 mattsmusicpage.com. All rights reserved.

Legal & DMCA: Matt's Music Page has been providing lyrics and tabs in a legal way, paying royalties each year to a few organizations. Then, all lyrics and tabs were removed from the site. Now, there's a new owner to the site, which purchased it August 26, 2014, and he is in negotiation to obtain licensing from BMI at the moment. If you have a specific DMCA request -- please do not hesitate to contact me via the contact button on top. I will do my very best to keep this site fully legal.

Get our toolbar!

 

1939 LYRIC THEATRE New York PHOTO
$5.83
1939 LYRIC THEATRE New York PHOTO picture


Star Spangled Banner or Marines Hymn lyrics signed by WWII Charles W. Lindberg
$10.0
Star Spangled Banner or Marines Hymn lyrics signed by WWII Charles W. Lindberg picture


OLD LARGE HISTORIC PHOTO OF THE LYRIC THEATRE, SYDNEY c1930s, WAR BONDS BOOTH
$7.42
OLD LARGE HISTORIC PHOTO OF THE LYRIC THEATRE, SYDNEY c1930s, WAR BONDS BOOTH picture


SONG OF REVOLUTION CARD SET WITH 13 MOST FAVORED COMMUNIST SONGS LYRICS + NOTES
$24.99
SONG OF REVOLUTION CARD SET WITH 13 MOST FAVORED COMMUNIST SONGS LYRICS + NOTES picture


OLD LARGE HISTORIC PHOTO OF THE LYRIC THEATRE, SYDNEY c1930s, WAR LOANS BOOTH
$7.42
OLD LARGE HISTORIC PHOTO OF THE LYRIC THEATRE, SYDNEY c1930s, WAR LOANS BOOTH picture