Your One-Stop Source For
Music Lyrics
Bass and Guitar Tabs
and More...
Music Lyrics Bass and Guitar Tabs

 

The Tabs Are Below

Learn To Read Tab
Chords Handbook
Corrections & Additions
Get Official Tab
STP tabs @ 911Tabs

Stone Temple Pilots - All in the Suit That You Wear

Submitted By: Anavrin

EMail: joe_the_man3@hotmail.com

Album: Thank You (2003)

As tabbed by Joe Muggah

 

Dropped D tuning

 

 

Verse

G|---------------------------------------------------------|

D|---------------------------------------------------------|

A|------5V--------------5--4^-------5V--------------5--4^--|

D|--0---------3--0-0------------0---------3--0-0-----------|

 

 

Fill

G|----------------------|

D|----------------------|

A|-------0-3-5-3-0------|

D|--3--5----------------|

 

 

Pre-Chorus

G|-------------------------------------------------------------|

D|-------------------------------------------------------------|

A|--5--5-5---5-5------------5-5--------0-3-5-3-0---------------|

D|-----------------0--0-0---------3--5------------5--5-5--5-5--|

 

(continued)

G|-------------------------------------------------------------|

D|-------------------------------------------------------------|

A|-------5---5-5---5--5-5---5-5--------0-3-5-3-0---------------|

D|--0--0--------------------------3--5------------5~-----12\---|

 

 

Chorus

G|-------------------------------------------------------------|

D|-------------------------------------------------------------|

A|--1--1--1-1-1-1--3--3--3-3-3-3-----5------------5------------|

D|--------------------------------0-----3-5-3--0-----3-5-3-0---|

 

(continued)

G|-------------------------------------------------------------|

D|-----------------------7-5-7\--------------------------------|

A|--1--1--1-1-1-1--2--2--------------5------------5------------|

D|--------------------------------0-----3-5-3--0-----3-5-3-0---|

 

(continued)

G|---------------------------------|

D|---------------------------------|

A|--1--1--1-1-1-1--3--3--3-3-3-3---|

D|---------------------------------|

 

 

Bridge

G|---------|-------------------------------------|

D|---------|-------------------------------------|

A|---------|-----5v------------5v----------------|

D|--/12\-0-|--0------3-5-3--0------0-3-5-3-------|

 

(continued; end on:)

G|----------------------------------------|

D|----------------------------------------|

A|--5-5-5-5-5-5-5-5-5-5-5-5-5-5-5-5-------|

D|----------------------------------------|

 

 

Outro 1

G|-------------------------------------------------------------|

D|-------------------------------------------------------------|

A|--1--1--1-1-1-1--3--3--3-3-3-3-----5------------5------------|

D|--------------------------------0-----3-5-3--0-----3-5-3-0---|

 

(continued)

G|-------------------------------------------------------------|

D|-----------------------7-5-7\--------------------------------|

A|--1--1--1-1-1-1--2--2--------------5------------5------------|

D|--------------------------------0-----3-5-3--0-----3-5-3-0---|

 

 

Outro 2 end on

G|--------------------------------|-------|

D|--------------------------------|-------|

A|-----5v------------5v-----------|-------|

D|--0------3-5-3--0------0-3-5-3--|--0----|

 

 

Verse

Fill

Pre-Chorus

Chorus

Verse

Fill

Pre-Chorus

Chorus

Bridge

Outro 1

Outro 2

 

 

Return to my to my STP bass tabs page

The Tablature is Copyright its respective owners.

Sign Up For My Newsletter
Subscribe | Unsubscribe

Site Map | Disclaimer | Privacy Policy | Media Kit | Submissions/Corrections

Website © 2000-2014 mattsmusicpage.com. All rights reserved.

Legal & DMCA: Matt's Music Page has been providing lyrics and tabs in a legal way, paying royalties each year to a few organizations. Then, all lyrics and tabs were removed from the site. Now, there's a new owner to the site, which purchased it August 26, 2014, and he is in negotiation to obtain licensing from BMI at the moment. If you have a specific DMCA request -- please do not hesitate to contact me via the contact button on top. I will do my very best to keep this site fully legal.

Get our toolbar!

 

CA PHOTO bde-128 Rolling Stones Music Group
$17.0
CA PHOTO bde-128 Rolling Stones Music Group picture


Rolling stones postcard
$0.75
Rolling stones postcard picture


ROCK N ROLL COMICS GUNS N ROSES METALLICA MOTLEY CRUE THE ROLLING STONES 1 2 4 6
$9.99
ROCK N ROLL COMICS GUNS N ROSES METALLICA MOTLEY CRUE THE ROLLING STONES 1 2 4 6 picture


A & B.C. GUM 1965 SCARCE CARD # 35 ROLLING STONES--ROLLING STONES " A NICE CARD
$7.8
A & B.C. GUM 1965 SCARCE CARD  # 35 ROLLING STONES--ROLLING STONES


Rolling Stones Zippo Windproof Lighter
$18.0
Rolling Stones Zippo Windproof Lighter picture