Your One-Stop Source For
Music Lyrics
Bass and Guitar Tabs
and More...
Music Lyrics Bass and Guitar Tabs

 

The Tabs Are Below

Learn To Read Tab
Chords Handbook
Corrections & Additions
Get Official Tab
SOTY tabs @ 911Tabs

Author/Artist: Story of the year

Title: Light years away

Album: Story of the year EP/Demo Version

Transcribed by: Christian Scherf

Email: scherfiwurst@yahoo.com

 

-|----------------------------------------------------------------------------

-|----------------------------------------------------------------------------

-|----------------------------------------------------------------------------

-|----------------------7----------------------------------------2p0----------

-|----------------------5-------4-----44-4p5p4p0----2-----22--2x--------------

-|------------------------------2-----22------------0-----00--0---------------

INTRO ....... fade in.. PM.... PM.... 3X then

 

-|----------------------------------------------------------------------------

-|----------------------------------------------------------------------------

-|----------------------------------------------------------------------------

-|--------------------------------------7-7-7-7------2------------------------

-|---------4-----44--4p5p4p0------------5-5-5-5------2------------------------

-|---------2-----22----------------------------------0------------------------

PM.... PM...........

 

-|----------------------------------------------------------------------------

-|----------------------------------------------------------------------------

-|----------------------------------------------------------------------------

-|----------------------------------2p0---------------------------------7-----

-|-4-----44-4p5p4p0----2-----22--2x---------------------------4---4-4---5-2---

-|-2-----22------------0-----00--0----------------------------2---2-2-----0---

PM.... PM.... repeat 3 times, then PM... ....

 

-|----------------------------------------------------------------------------

-|----------------------------------------------------------------------------

-|----------------------------------------------------------------------------

-|-----------------------------------------------2p0--------------------------

-|-------------4----44-4p5p4p0------2-----22--2x-------------4x---4444444-----

-|-------------2----22--------------0-----00--0--------------2x---2222222-----

VERSE PM... ....... PM.. ............ then PM........

 

-|----------------------------------------------------------------------------

-|----------------------------------------------------------------------------

-|----------------------------------------------------------------------------

-|---------------------------------------2p0----------------------------------

-|--------4----44-4p5p4p0----2-----22-2x--------------------4x---4444444------

-|--------2----22------------0-----00-0---------------------2x---2222222------

PM.... PM.... then... PM........

 

-|----------------------------------------------------------------------------

-|----------------------------------------------------------------------------

-|----------------------------------------------------------------------------

-|---------4-444444---7-777777---2-222222-------------------------------------

-|---------4-444444---7-777777---2-222222----12x11x12x11x12x11----------------

-|---------2-222222---5-555555---0-000000-------------------------------------

CHORUS

 

-|----------------------------------------------------------------------------

-|----------------------------------------------------------------------------

-|----------------------------------------------------------------------------

-|---------4-444444---7-777777-----------2-222222-----------------------------

-|---------4-444444---7-777777---6p7-----2-222222----12x11x12x11x12x11--------

-|---------2-222222---5-555555-----------0-000000-----------------------------

to INTRO

 

-|----------------------------------------------------------------------------

-|----------------------------------------------------------------------------

-|----------------------------------------------------------------------------

-|-------------444x---444x---444x---444x---444x---777777---999999-------------

-|-------------444x---444x---444x---444x---444x---555555---777777-------------

-|-------------222x---222x---222x---222x---222x-------------------------------

INTERLUDE repeat ....then

 

-|----------------------------------------------------------------------------

-|----------------------------------------------------------------------------

-|----------------------------------------------------------------------------

-|---4-4444---6-6666----7-7777----9-9999--------------------------------------

-|---4-4444---4-4444----5-5555----7-7777--------------------------------------

-|---2-2222-------------------------------------------------------------------

repeat sometiems, untill on last..

 

-|----------------------------------------------------------------------------

-|----------------------------------------------------------------------------

-|----------------------------------------------------------------------------

-|---4-4444---6-6666---77777777---99999999------------------------------------

-|---4-4444---4-4444---55555555---77777777-----2-2-2-2------------------------

-|---2-2222------------------------------------0-0-0-0------------------------

...then back to chorus

 

-|----------------------------------------------------------------------------

-|----------------------------------------------------------------------------

-|----------------------------------------------------------------------------

-|----------------------------------------------------------------------------

-|----------------------------------------2--44-4p5p4p0---2x-2222-------------

-|----------------------------------------2--22-----------0x-0000-------------

when everything goes silent... PM....... .......

 

-|----------------------------------------------------------------------------

-|----------------------------------------------------------------------------

-|----------------------------------------------------------------------------

-|---------------------------------------7777----------2----------------------

-|-------------4-----44-4p5p4p0----------5555----------2----------------------

-|-------------2-----22--------------------------------0----------------------

END PM.... PM.....

 

 

Return to my Story of the Year tabs page

The Tablature is Copyright its respective owners.

Sign Up For My Newsletter
Subscribe | Unsubscribe

Site Map | Disclaimer | Privacy Policy | Media Kit | Submissions/Corrections

Website © 2000-2014 mattsmusicpage.com. All rights reserved.

Legal & DMCA: Matt's Music Page has been providing lyrics and tabs in a legal way, paying royalties each year to a few organizations. Then, all lyrics and tabs were removed from the site. Now, there's a new owner to the site, which purchased it August 26, 2014, and he is in negotiation to obtain licensing from BMI at the moment. If you have a specific DMCA request -- please do not hesitate to contact me via the contact button on top. I will do my very best to keep this site fully legal.

Get our toolbar!