Your One-Stop Source For
Music Lyrics
Bass and Guitar Tabs
and More...
Music Lyrics Bass and Guitar Tabs

 

The Tabs Are Below

Learn To Read Tab
Chords Handbook
Corrections & Additions
Get Official Tab
SOTY tabs @ 911Tabs

Band: Story Of The Year

Album: Page Avenue

Song: In The Shadows

Tabber: HeReTic814

 

Hey my names Anthony. I tabbed this song, but I forgot to put my member name. MY BAD.. Well here it is, please rate it.

 

Intro

G---------------------------------------------------

D---------------------------------------------------

A-333-xxx-333-xx-333-----333------------------------

D--------------------000----------------------------

 

Verse 8x

G---------------------------------------------------

D---------------------------------------------------

A------------333------------------------------------

D-22222-0-22-----33-0-------------------------------

 

Pre-Chorus

G-----------------------------------------------

D-----------------------------------------------

A-333333-333333-333333-333333-------------------

D-----------------------------------------------

 

Chorus 4x

G-----------------------------------------------

D-----------------------------------------------

A----------------------333333333333-------------

G-2-2222222--0-0000000--------------------------

 

Verse 8x

Pre-Chorus

 

Chorus (after last time play) G------------------------

D------------------------

A-3333-5555--------------

D------------------------

 

Interlude 4x

G-----------------------------------------------------------

D-----------------------------------------------------------

A-----------------------------------------------------------

D-2~ ------5~ ---------------------------------------------

 

Verse 6x

Pre Chorus

 

Chorus

G----------------------------------------------------------¦ 1x **then play the regular chorus 4x

D----------------------------------------------------------¦ (after last time play) G-----------------

A---------3333333333333------------------------------------¦ D-----------------

D-22--00---------------------------------------------------¦ A-3333-5555-------

 

Verse 2x

G--------------------------------------------------

D--------------------------------------------------

A------------333-----------------------------------

D-22222-0-22-----33-0---22-------------------------

 

 

Return to my Story of the Year bass tabs page

The Tablature is Copyright its respective owners.

Sign Up For My Newsletter
Subscribe | Unsubscribe

Site Map | Disclaimer | Privacy Policy | Media Kit | Submissions/Corrections

Website © 2000-2014 mattsmusicpage.com. All rights reserved.

Legal & DMCA: Matt's Music Page has been providing lyrics and tabs in a legal way, paying royalties each year to a few organizations. Then, all lyrics and tabs were removed from the site. Now, there's a new owner to the site, which purchased it August 26, 2014, and he is in negotiation to obtain licensing from BMI at the moment. If you have a specific DMCA request -- please do not hesitate to contact me via the contact button on top. I will do my very best to keep this site fully legal.

Get our toolbar!