Your One-Stop Source For
Music Lyrics
Bass and Guitar Tabs
and More...
Music Lyrics Bass and Guitar Tabs

 

The Tabs Are Below

Learn To Read Tab
Chords Handbook
Corrections & Additions
Get Official Tab
SOTY tabs @ 911Tabs

Story of the Year feat. H2O

Falling Down

Page Avenue

Adam “The Skull” Russell

 

Drop D

 

Intro

|--------------------|

|--------------------|

|--------------------|

|-00-077-788-81010-10| 3x

 

|-----------------|

|-----------------|

|-----------------|

|-00-077-788888810|

 

Verse

|-------------------|

|-------------------|

|------00-011-133-3-|

|-00-0--------------|

 

|----------------------|

|---- -------3-----5---|

|------00-01—--1—3—--3-|

|-00-0-----------------|

 

|-------------------|

|-------------------|

|------00-011-133-3-|

|-00-0--------------|

 

|-------------------|

|-------------------|

|------00-01xxx3xxx-|

|-00-0--------------|

 

|-------------------|

|-------------------|

|------00-011-133-3-|

|-00-0--------------|

 

|----------------------|

|------------3-----5---|

|------00-01—--1—3—--3-|

|-00-0-----------------|

 

|-------------------|

|-------------------|

|------00-011-133-3-|

|-00-0--------------|

 

|-------------------|

|-------------------|

|------00-011113333-|

|-00-0--------------|

 

Chorus

|---------------------------------|

|--------------5-----3------------|

|-1(16x)-3(8x)—--333—--333-0(16x)-|

|---------------------------------|

 

|----------------------|

|----------------------|

|------8888-------7777-|

|-0000-------0000------|

 

|---------------------------------|

|--------------5-----3------------|

|-1(16x)-3(8x)—--333—--333-0(16x)-|

|---------------------------------|

 

|----------------|

|----------32----|

|-------------31-|

|-00000000-------|

 

Post-Chorus (distorted)

|----------------------|

|----------------------|

|----------------------|

|-00007777888810101010-|

 

|------------------|

|------------------|

|------------------|

|-0000777788888810-|

 

Verse 2 (I always just play this, you can too if you want)

|-------------------|

|-------------------|

|------00-011-133-3-|

|-00-0--------------|

 

|----------------------|

|------------3-----5---|

|------00-01—--1—3—--3-|

|-00-0-----------------|

 

listen to song for the “chugging” pattern he does and timing

|--------------------------------------------|

|--------------------------------------------|

|-5---------7---------8----------10----------|

|--------------------------------------------|

 

Chorus 2

|---------------------------------|

|--------------5-----3------------|

|-1(16x)-3(8x)—--333—--333-0(16x)-|

|---------------------------------|

 

|---------------------------|

|---------------------------|

|---------------------------|

|-0000-3/2-3/2-0000-3/2-3/2-|

 

|---------------------------------|

|--------------5-----3------------|

|-1(16x)-3(8x)—--333—--333-0(16x)-|

|---------------------------------|

 

Bridge first time second time third time

|---------------------------|---------|----------------------------|--------------------------|

|------10-------10-------10-|---------|----------------------------|--------------------------|

|------8--------8--------8--|---------|-8(play with the drum roll)-|--------------------------|

|-0000-----0000-----0000----|-33333322|----------------------------|-33-33-22-55-5320~~~~~~~~~|

 

drum roll

|---------------|

|---------------|

|-------1111113-|

|---------------|

 

Chorus 3

|---------------------------------|

|--------------5-----3------------|

|-1(16x)-3(8x)—--333—--333-0(16x)-|

|---------------------------------|

 

|---------------------------|

|---------------------------|

|---------------------------|

|-0-0-0-3-2-3-0-0-0-3/2-3/2-|

 

|---------------------------------|

|--------------5-----3------------|

|-1(16x)-3(8x)—--333—--333-0(16x)-|

|---------------------------------|

 

|--------|-----------------|

|--------|-----------------|

|-55-5-5-|-----------------|

|--------|-010-323-0~~~~~~~|

 

Outro

|------------------------------|

|----------------------------3-|

|-5/---------------3\5/3-1-3---|

|----000-0-000-000-------------| 3x

 

|------------------------|

|------------------------|

|-5/----------------3331-|

|----000-0-000-000-------|

 

|------------------------------|

|----------------------------3-|

|-5/---------------3\5/3-1-3---|

|----000-0-000-000-------------|

 

|-------------------------------|

|-------------------5\7/5-3-5-7-|

|-5/----------------------------|

|----000-0-000-000--------------|

 

|-------------------------------|

|-----------------------------3-|

|-5/----------------3\5/3-1-3---|

|----000-0-000-000--------------|

 

|----------------------------|

|----------------------5-----|

|-5/----------------3----3-1-|

|----000-0-000-000-----------|

 

|-------------------------------|

|-----------------------------5-|

|-5/----------------3\5/3-1-3---|

|----000-0-000-000--------------| until fades out

 

Return to my Story of the Year bass tabs page

The Tablature is Copyright its respective owners.

Sign Up For My Newsletter
Subscribe | Unsubscribe

Site Map | Disclaimer | Privacy Policy | Media Kit | Submissions/Corrections

Website © 2000-2014 mattsmusicpage.com. All rights reserved.

Legal & DMCA: Matt's Music Page has been providing lyrics and tabs in a legal way, paying royalties each year to a few organizations. Then, all lyrics and tabs were removed from the site. Now, there's a new owner to the site, which purchased it August 26, 2014, and he is in negotiation to obtain licensing from BMI at the moment. If you have a specific DMCA request -- please do not hesitate to contact me via the contact button on top. I will do my very best to keep this site fully legal.

Get our toolbar!

 

1939 LYRIC THEATRE New York PHOTO
$5.83
1939 LYRIC THEATRE New York PHOTO picture


Star Spangled Banner or Marines Hymn lyrics signed by WWII Charles W. Lindberg
$10.0
Star Spangled Banner or Marines Hymn lyrics signed by WWII Charles W. Lindberg picture


OLD LARGE HISTORIC PHOTO OF THE LYRIC THEATRE, SYDNEY c1930s, WAR BONDS BOOTH
$7.42
OLD LARGE HISTORIC PHOTO OF THE LYRIC THEATRE, SYDNEY c1930s, WAR BONDS BOOTH picture


SONG OF REVOLUTION CARD SET WITH 13 MOST FAVORED COMMUNIST SONGS LYRICS + NOTES
$24.99
SONG OF REVOLUTION CARD SET WITH 13 MOST FAVORED COMMUNIST SONGS LYRICS + NOTES picture


OLD LARGE HISTORIC PHOTO OF THE LYRIC THEATRE, SYDNEY c1930s, WAR LOANS BOOTH
$7.42
OLD LARGE HISTORIC PHOTO OF THE LYRIC THEATRE, SYDNEY c1930s, WAR LOANS BOOTH picture