Your One-Stop Source For
Music Lyrics
Bass and Guitar Tabs
and More...
Music Lyrics Bass and Guitar Tabs

 

The Tabs Are Below

Learn To Read Tab
Chords Handbook
Corrections & Additions
Get Official Tab
SOTY tabs @ 911Tabs

Song : Anthem Of Our Dying Day

Band : Story Of The Year.

Tuning : Drop D (DADG)

 

 

Intro (41 sec)

G|-----------------------|

D|-----------------------|

A|-----------------------|

D|4xxxx-4xxxx-4xxxx-4xxxx|

 

Chorus (45 sec)

G|------------------------------------------------------------------------------------------------------------|

D|------------------------------------------------------------------------------------------------------------|

A|--------------------------------------------------------------------------------4-4444-4-4444-5-5555-5-5555-|

D|-7-7777-7-7777-7-7777-7-7777-0-2-2222-2-2222-2-2222-2-2222-4-4444-4-4444-4-4444-----------------------------|

 

Post Chorus (0:59

G|-------------|

D|-------------|

A|------555555-|

D|4-4-4--------|

 

Verse (1:07 but guitar starts at 1:02)

G|------------------------------------------------------------------------------------------------------------|

D|------------------------------------------------------------------------------------------------------------|

A|5-5555-5-5555-5-5555-5-5555-------------5-5555-5-5555-5-5555-5-5555-------------5-5555-5-5555-5-5555-5-5555-|

D|----------------------------44-44-44-44-----------------------------44-44-44-44-----------------------------|

 

Verse (Continued)

G|------------------------------------------------|

D|------------------------------------------------|

A|-----------------------5-5555-5-5555-5xxxx-5xxxx|

D|44444444-666666-888888--------------------------|

 

Chorus (1:33)

G|------------------------------------------------------------------------------------------------------------|

D|------------------------------------------------------------------------------------------------------------|

A|--------------------------------------------------------------------------------4-4444-4-4444-5-5555-5-5555-|

D|-7-7777-7-7777-7-7777-7-7777-0-2-2222-2-2222-2-2222-2-2222-4-4444-4-4444-4-4444-----------------------------|

 

Interlude Thing (1:48)

G|----------------------------------------------------------------------------------------|

D|----------------------------------------------------------------------------------------|

A|------------------55-5-5------------------55-5-5-------------------------55-5-5---------|

D|-44-4-44---44-4-4--------44-4-44---44-4-4--------xx-x-x-44-4-44---4-44-4--------4-44-44-|

 

Interlude (Continued)

G|----------------------------------------------|

D|----------------------------------------------|

A|-------------x-5-5-5-x-5-5-5-x-5-5-5-x-5-5-5--|

D|-xxxx-44-4-4----------------------------------|

 

2nd Verse (2:10)

G|--------------------------------------------------------------------|

D|--------------------------------------------------------------------|

A|---------------------------------------5-x-xx-5-x-xx-5-x-xx-5-x-xx--|

D|-0-0000-0-0000-0-0000-0-0000--4-4-4-4-------------------------------|

 

--Guitar Part--(2:21)

 

This comes in during the guitar part.... at 2:34

G|-------------|

D|-------------|

A|5-5555-5-5555|

D|-------------|

 

Chorus (2:36)

G|------------------------------------------------------------------------------------------------------------|

D|------------------------------------------------------------------------------------------------------------|

A|--------------------------------------------------------------------------------4-4444-4-4444-5-5555-5-5555-|

D|-7-7777-7-7777-7-7777-7-7777-0-2-2222-2-2222-2-2222-2-2222-4-4444-4-4444-4-4444-----------------------------|

 

 

G|--------------------------------------------------------------------------------------------------------------|

D|--------------------------------------------------------------------------------------------------------------|

A|----------------------------------------------------------------------------------4-4444-4-4444-5-5555-5-5555-|

D|-7-7777-7-7777-7-7777-7-7777-5-2-2222-2-2222-2-2222-2-2222-3-4-4444-4-4444-4-4444-----------------------------|

 

Outro (3:05)

G|--------------------------------------------------|

D|--------------------------------------------------|

A|--------------------x-5-5-5-x-5-5-5-x-5-5-5-xxxx--|

D|--4-4-4--xxxx-4-4-4-------------------------------|

 

Well, thats it.. hopes its 100%.. i know its not all perfect... but its as close as i could get...

the (X:XX) is the time...please rate... and questions or comments.. email me : 44caliber@gmail.com

 

 

Return to my Story of the Year bass tabs page

The Tablature is Copyright its respective owners.

Sign Up For My Newsletter
Subscribe | Unsubscribe

Site Map | Disclaimer | Privacy Policy | Media Kit | Submissions/Corrections

Website © 2000-2014 mattsmusicpage.com. All rights reserved.

Legal & DMCA: Matt's Music Page has been providing lyrics and tabs in a legal way, paying royalties each year to a few organizations. Then, all lyrics and tabs were removed from the site. Now, there's a new owner to the site, which purchased it August 26, 2014, and he is in negotiation to obtain licensing from BMI at the moment. If you have a specific DMCA request -- please do not hesitate to contact me via the contact button on top. I will do my very best to keep this site fully legal.

Get our toolbar!