Your One-Stop Source For
Music Lyrics
Bass and Guitar Tabs
and More...
Music Lyrics Bass and Guitar Tabs

 

The Tabs Are Below

Learn To Read Tab
Chords Handbook
Corrections & Additions
Get Official Tab
Staind tabs @ 911Tabs

SAuthor/Artist: Staind

Title: Waste (Acoustic)

Album: Break The Cycle

Transcribed by: Robert Karlsson

Email: bobbe@welho.com

 

Tuning: Eb Bb Gb Db Ab Db (high to low)

 

This song has two guitars in it.

 

 

The 1st guitar plays:

 

---------|---------|---------|---------|---------|---------|---------|--------

---------|---------|---------|---------|---------|---------|---------|--------

---------|---------|---------|---------|---------|---------|---------|--------

---------|---7-----|-6-------|---------|---------|---6-----|---------|--------

---4-5p4-|---------|---------|---------|---4-5p4-|---------|-7-------|--------

-4-------|-4-----4-|---------|---------|-4-------|-4-----4-|---------|--------

Intro:

 

---------|---------|---------|---------|---------|---------|---------|--------

---------|---------|---------|---------|---------|---------|---------|--------

---------|---------|---------|---------|---------|---------|---------|--------

---------|---7-----|-6-------|---------|---------|---6-----|---------|--------

---4-5p4-|---------|---------|---------|---4-5p4-|---------|-7-------|--------

-4-------|-4-----4-|---------|---------|-4-------|-4-----4-|---------|--------

(4x)

 

---------|---------|---------|----------|---------|---------|---------|-------

---------|---------|---------|----------|---------|---------|---------|-------

---------|---------|---------|-11-------|---------|---------|---------|-11----

-7-6-6-7-|-7-6-6---|-----9---|----9-9---|-7-6-6-7-|-7-6-6---|-----9---|----9--

-7-6-6-7-|-7-6-6-7-|---------|----------|-7-6-6-7-|-7-6-6-7-|---------|-------

-7-6-6-7-|-7-6-6---|---------|----------|-7-6-6-7-|-7-6-6---|---------|-------

Chorus:

 

------|-----------------------------------------------------------------------

------|-----------------------------------------------------------------------

-11---|-----------------------------------------------------------------------

----9-|-----------------------------------------------------------------------

------|-----------------------------------------------------------------------

------|-----------------------------------------------------------------------

(2x)

 

---------|---------|---------|---------|---------|---------|---------|--------

---------|---------|---------|---------|---------|---------|---------|--------

---------|---------|---------|---------|---------|---------|---------|--------

---------|---7-----|---------|---------|---------|---6-----|---------|--------

---4-5p4-|---------|-6-------|---------|---4-5p4-|---------|-7-------|--------

-4-------|-4-----4-|---------|---------|-4-------|-4-----4-|---------|--------

Intro to verse 2:

 

---------|---------|---------|---------|---------|---------|---------|--------

---------|---------|---------|---------|---------|---------|---------|--------

---------|---------|---------|---------|---------|---------|---------|--------

---------|---7-----|---------|---------|---------|---6-----|---------|--------

---4-5p4-|---------|-6-------|---------|---4-5p4-|---------|-7-------|--------

-4-------|-4-----4-|---------|---------|-4-------|-4-----4-|---------|--------

Verse 2: (4x)

 

---------|---------|---------|----------|---------|---------|---------|-------

---------|---------|---------|----------|---------|---------|---------|-------

---------|---------|---------|-11-------|---------|---------|---------|-11----

-7-6-6-7-|-7-6-6-9-|-----9---|----9-9---|-7-6-6-7-|-7-6-6-9-|-----9---|----9--

-7-6-6-7-|-7-6-6-7-|---------|----------|-7-6-6-7-|-7-6-6-7-|---------|-------

-7-6-6-7-|-7-6-6---|---------|----------|-7-6-6-7-|-7-6-6---|---------|-------

Chorus:

 

------|-----------------------------------------------------------------------

------|-----------------------------------------------------------------------

-11---|-----------------------------------------------------------------------

----9-|-----------------------------------------------------------------------

------|-----------------------------------------------------------------------

------|-----------------------------------------------------------------------

 

 

-------------|-----------|------------|-----------|-------------|-----------|-

-------------|-----------|------------|-----------|-------------|-----------|-

-------------|-----------|------------|-----------|-------------|-----------|-

----15----12-|--------14-|------------|-----------|----15----12-|-----------|-

-12----12----|---12------|---12-15----|-10-10-0---|-12----12----|---12---15-|-

-0-----0-----|-----------|---0--------|-10-10-0---|-0-----0-----|-----------|-

Interlude:

 

------------|-----------|---------|---------|---------|---------|-------------

------------|-----------|-3/6-6-5-|---3---1-|---1-1-1-|-1/3-3---|-------------

------------|-----------|---------|---------|---------|---------|-------------

------------|---------5-|---------|---------|---------|---------|-------------

----15-15---|----10-----|-5-8-8-7-|---5---3-|---3-3-3-|-3-5-5---|-------------

----12-12---|-10----5---|-0-------|---------|---------|---------|-------------

(4x) (4x)

 

---------|---------|---------|----------|---------|---------|---------|-------

---------|---------|---------|----------|---------|---------|---------|-------

---------|---------|---------|-11-------|---------|---------|---------|-11----

-7-6-6-7-|-7-6-6---|-----9---|----9-9---|-7-6-6-7-|-7-6-6---|-----9---|----9--

-7-6-6-7-|-7-6-6-7-|---------|----------|-7-6-6-7-|-7-6-6-7-|---------|-------

-7-6-6-7-|-7-6-6---|---------|----------|-7-6-6-7-|-7-6-6---|---------|-------

Outro:

 

------|---------|----------|--------------------------------------------------

------|---------|----------|--------------------------------------------------

-11---|---------|-------11-|--------------------------------------------------

----9-|-7-6-6-7-|-7-6-6-9--|--------------------------------------------------

------|-7-6-6-7-|-7-6-6-7--|--------------------------------------------------

------|-7-6-6-7-|-7-6-6----|--------------------------------------------------

(4x)

 

 

 

 

 

 

 

The 2nd guitar plays:

 

 

Intro: (Just 1st guitar)

 

 

----------|---------|---------|---------|---------|---------|---------|-------

-----10---|---9-----|---------|---------|-----10--|---9-----|-12------|-------

---9----9-|-------9-|---------|---------|---9---9-|-------9-|---------|-------

----------|-11------|-9-------|---------|-11------|-11------|---------|-------

----------|---------|---------|---------|---------|---------|---------|-------

----------|---------|---------|---------|---------|---------|---------|-------

 

 

----------|---------|---------|---------|---------|---------|---------|-------

-----10---|----10---|---------|---------|-----9---|---10----|-12------|-------

---9----9-|-------9-|---------|---------|---9---9-|-------9-|---------|-------

-11-------|-11------|-9-------|---------|-11------|-11------|---------|-------

----------|---------|---------|---------|---------|---------|---------|-------

----------|---------|---------|---------|---------|---------|---------|-------

 

 

---------|---------|---------|---------|---------|---------|---------|--------

-----9---|---9--10-|-----10--|-9-------|-----9---|---9--10-|-----10--|-12-----

---9---9-|---------|---9---9-|---9-----|---9---9-|---------|---9---9-|--------

-11------|-11------|---------|-----9---|-11------|-11------|---------|--------

---------|---------|---------|---------|---------|---------|---------|--------

---------|---------|---------|---------|---------|---------|---------|--------

 

 

---------|---------|---------|---------|---------|---------|---------|--------

-----9---|---9--10-|-----10--|-9-------|-----9---|---9--10-|-----10--|-12-----

---9---9-|---------|---9---9-|---9-----|---9---9-|---------|---9---9-|--------

-11------|-11------|---------|-----9---|-11------|-11------|---------|--------

---------|---------|---------|---------|---------|---------|---------|--------

---------|---------|---------|---------|---------|---------|---------|--------

 

 

---------|---------|---------|---------|--------------------------------------

---------|---------|---------|---------|--------------------------------------

---------|-------4-|---4-4-4-|---4-4-4-|--------------------------------------

-7-6-6-7-|-7-6-6-4-|---4-4-4-|---4-4-4-|--------------------------------------

-7-6-6-7-|-7-6-6-2-|---2-2-2-|---2-2-2-|--------------------------------------

-7-6-6-7-|-7-6-6-2-|---2-2-2-|---2-2-2-|--------------------------------------

Chorus: (4x)

 

---------|---------|---------|---------|---------|---------|---------|--------

-----9---|---10----|---------|---------|-----9---|---10----|-12------|--------

---9---9-|-------9-|---------|---------|---9---9-|-------9-|---------|--------

---------|-11------|-9-------|---------|-11------|-11------|---------|--------

---------|---------|---------|---------|---------|---------|---------|--------

---------|---------|---------|---------|---------|---------|---------|--------

Intro to verse 2:

 

---------|---------|---------|---------|---------|---------|---------|--------

-----9---|---10----|---------|---------|-----9---|---10----|-12------|--------

---9---9-|-------9-|---------|---------|---9---9-|-------9-|---------|--------

-11------|-11------|-9-------|---------|-11------|-11------|---------|--------

---------|---------|---------|---------|---------|---------|---------|--------

---------|---------|---------|---------|---------|---------|---------|--------

Verse 2:

 

---------|---------|---------|---------|---------|---------|---------|--------

-----9---|---10----|---------|---------|-----9---|---10----|-12------|--------

---9---9-|-------9-|---------|---------|---9---9-|-------9-|---------|--------

-11------|-11------|-9-------|---------|-11------|-11------|---------|--------

---------|---------|---------|---------|---------|---------|---------|--------

---------|---------|---------|---------|---------|---------|---------|--------

 

 

---------|---------|---------|---------|---------|---------|---------|--------

-----9---|---9--10-|-----10--|-9-------|-----9---|---9--10-|-----10--|-12-----

---9---9-|---------|---9---9-|---9-----|---9---9-|---------|---9---9-|--------

-11------|-11------|---------|-----9---|-11------|-11------|---------|--------

---------|---------|---------|---------|---------|---------|---------|--------

---------|---------|---------|---------|---------|---------|---------|--------

 

 

---------|---------|---------|---------|---------|---------|---------|--------

-----9---|---9--10-|-----10--|-9-------|-----9---|---9--10-|-----10--|-12-----

---9---9-|---------|---9---9-|---9-----|---9---9-|---------|---9---9-|--------

-11------|-11------|---------|-----9---|-11------|-11------|---------|--------

---------|---------|---------|---------|---------|---------|---------|--------

---------|---------|---------|---------|---------|---------|---------|--------

 

 

---------|---------|---------|---------|--------------------------------------

---------|---------|---------|---------|--------------------------------------

---------|-------4-|---4-4-4-|---4-4-4-|--------------------------------------

-7-6-6-7-|-7-6-6-4-|---4-4-4-|---4-4-4-|--------------------------------------

-7-6-6-7-|-7-6-6-2-|---2-2-2-|---2-2-2-|--------------------------------------

-7-6-6-7-|-7-6-6-2-|---2-2-2-|---2-2-2-|--------------------------------------

Chorus: (4x)

 

 

Interlude: (Just 1st guitar)

 

 

 

---------|---------|---------|---------|---------|---------|------------------

---------|---------|---------|---------|---------|---------|------------------

---------|-------4-|---4-4-4-|---4-4-4-|---------|-------4-|------------------

-7-6-6-7-|-7-6-6-4-|---4-4-4-|---4-4-4-|-7-6-6-7-|-7-6-6-4-|------------------

-7-6-6-7-|-7-6-6-2-|---2-2-2-|---2-2-2-|-7-6-6-7-|-7-6-6-2-|------------------

-7-6-6-7-|-7-6-6-2-|---2-2-2-|---2-2-2-|-7-6-6-7-|-7-6-6-2-|------------------

Outro: (8x)

 

 

 

Return to my Staind tabs page

The Tablature is Copyright its respective owners.

Sign Up For My Newsletter
Subscribe | Unsubscribe

Site Map | Disclaimer | Privacy Policy | Media Kit | Submissions/Corrections

Website © 2000-2014 mattsmusicpage.com. All rights reserved.

Legal & DMCA: Matt's Music Page has been providing lyrics and tabs in a legal way, paying royalties each year to a few organizations. Then, all lyrics and tabs were removed from the site. Now, there's a new owner to the site, which purchased it August 26, 2014, and he is in negotiation to obtain licensing from BMI at the moment. If you have a specific DMCA request -- please do not hesitate to contact me via the contact button on top. I will do my very best to keep this site fully legal.

Get our toolbar!