Your One-Stop Source For
Music Lyrics
Bass and Guitar Tabs
and More...
Music Lyrics Bass and Guitar Tabs

 

The Tabs Are Below

Learn To Read Tab
Chords Handbook
Corrections & Additions
Get Official Tab
Staind tabs @ 911Tabs

Staind - Waste Guitar tab

 

tuning: ab db ab db gb bb

 

intro: clean (slow hammeron's & poweroff's)

bb|----------------------|----------------------|

gb|----------------------|----------------------|

db|--------------7---6~--|--------------6-------|

ab|-----4h5p4------------|-----4h5p4--------7~--| x5

db|--4---------4---4-----|--4---------4---4-----|

ab|----------------------|----------------------|

 

chorus: heavy distortion

bb|-------------------------|

gb|-------------------------|

db|--7h6--6--6--7h6--6--4~--|

ab|--7h6--6--6--7h6--6--2~--| x4

db|--7h6--6--6--7h6--6--2~--|

ab|-------------------------|

pm . . .

 

verse: clean (slow hammeron's & poweroff's)

bb|----------------------|----------------------|

gb|----------------------|----------------------|

db|--------------7---6~--|--------------6-------|

ab|-----4h5p4------------|-----4h5p4--------7~--| x5

db|--4---------4---4-----|--4---------4---4-----|

ab|----------------------|----------------------|

 

chorus: heavy distortion

bb|-------------------------|

gb|-------------------------|

db|--7h6--6--6--7h6--6--4~--|

ab|--7h6--6--6--7h6--6--2~--| x4

db|--7h6--6--6--7h6--6--2~--|

ab|-------------------------|

pm . . .

 

interlude a: clean

bb|-----------------------------------------------------------------|

gb|----10---7---9-----------------------10---7---9----9-------------|

db|--7----7---7---7--10---------------7----7---7---7--7-------12----|

ab|----------------------10-10-10-10------------------------10--10--| x4

db|----------------------10-10-10-10----------------------10--------|

ab|-----------------------------------------------------------------|

 

interlude b: heavy distortion

bb|----------------------------------------|

gb|----------------------------------------|

db|--12--15p14--12--15p14--10--12p10--10~--|

ab|--12--12-----12--12-----10--10-----10~--| x4

db|--12--12-----12--12-----10--10-----10~--|

ab|----------------------------------------|

 

outro: heavy distortion

bb|-------------------------|

gb|-------------------------|

db|--7h6--6--6--7h6--6--4~--|

ab|--7h6--6--6--7h6--6--2~--| x9

db|--7h6--6--6--7h6--6--2~--|

ab|-------------------------|

pm . . .

Return to my Staind tabs page

The Tablature is Copyright its respective owners.

Sign Up For My Newsletter
Subscribe | Unsubscribe

Site Map | Disclaimer | Privacy Policy | Media Kit | Submissions/Corrections

Website © 2000-2014 mattsmusicpage.com. All rights reserved.

Legal & DMCA: Matt's Music Page has been providing lyrics and tabs in a legal way, paying royalties each year to a few organizations. Then, all lyrics and tabs were removed from the site. Now, there's a new owner to the site, which purchased it August 26, 2014, and he is in negotiation to obtain licensing from BMI at the moment. If you have a specific DMCA request -- please do not hesitate to contact me via the contact button on top. I will do my very best to keep this site fully legal.

Get our toolbar!