Your One-Stop Source For
Music Lyrics
Bass and Guitar Tabs
and More...
Music Lyrics Bass and Guitar Tabs

 

The Tabs Are Below

Learn To Read Tab
Chords Handbook
Corrections & Additions
Get Official Tab
Staind tabs @ 911Tabs

Staind - Suffer Guitar tab

 

tune: ab,db,ab,db,gb,bb

 

intro/main riff:

bb|-------------------------------------------|

gb|--------------------------0------------0---|

db|--0--0-0---8--(0)---7--7-----0-------------|

ab|--0--0-0---8--(0)---5----------------------|

db|--0--0-0---8--(0)---0-----------5--5-------|

ab|--------------------------------3--3-------|

pm.. pm

 

verses:

bb|------------|---------------|

gb|------------|---------------|

db|*-8--let---*|---8-8----10---|play main riff

ab|*-8--ring--*|---8-8----10---| twice

db|--8---------|---8-8----10---|

ab|------------|---------------|

 

chorus: gtr.1

bb|-------------------------------------|

gb|-------------------------------------|

db|*-3--3--3-3-3-3-3---1--1-1---0--0-0-*|

ab|*-3--3--3-3-3-3-3---1--1-1---0--0-0-*|

db|--3--3--3-3-3-3-3---1--1-1---0--0-0--|

ab|-------------------------------------|

| gtr.2|

bb|-------------------------------------|

gb|-----10------------------------------|

db|*(10)---10--8-8\7---8~~~~-----------*|

ab|*-----------------8-----------------*|

db|-------------------------------------|

ab|-------------------------------------|

 

bridge:

bb|-----------------____---------------------|

gb|----------------/----\--------------------|

db|--0--0-0---1-0---3--3--0-0---1-0---0--0---|

ab|--0--0-0---1-0---3--3--0-0---1-0---0--0---|

db|--0--0-0---1-0---3--3--0-0---1-0---0--0---|

ab|------------------------------------------|

pm... pm.. pm....

 

break:(clean)

bb|-------------------------------|

gb|--10---10--8--8\7-----8--------|

db|-------------------8------(6)--|

ab|-------------------------------|

db|-------------------------------|

ab|-------------------------------|

 

this song is tabbed in the tuning mike mushok uses. however, you can play it

in dropped d, tuned down 1/2 step. just move all of the chords and notes to

their respective strings. play the ab|-----| like this: ab|--3--|

db|--5--| db|--5--|

ab|--3--|

Return to my Staind tabs page

The Tablature is Copyright its respective owners.

Sign Up For My Newsletter
Subscribe | Unsubscribe

Site Map | Disclaimer | Privacy Policy | Media Kit | Submissions/Corrections

Website © 2000-2014 mattsmusicpage.com. All rights reserved.

Legal & DMCA: Matt's Music Page has been providing lyrics and tabs in a legal way, paying royalties each year to a few organizations. Then, all lyrics and tabs were removed from the site. Now, there's a new owner to the site, which purchased it August 26, 2014, and he is in negotiation to obtain licensing from BMI at the moment. If you have a specific DMCA request -- please do not hesitate to contact me via the contact button on top. I will do my very best to keep this site fully legal.

Get our toolbar!

 

Hard Rock Pin Las Vegas 4th of july red white and blue guitar
$5.0
Hard Rock Pin Las Vegas 4th of july red white and blue guitar picture


Hard Rock Pin Hollywood Fl Bell Girl with dice luggage and guitar
$5.0
Hard Rock Pin Hollywood Fl Bell Girl with dice luggage and guitar picture


Hard Rock Pin Las Vegas King of Clubs Guitar rare only 3 lines of info on back
$5.0
Hard Rock Pin Las Vegas King of Clubs Guitar rare only 3 lines of info on back picture


Hard Rock Pin Edmonton guitar pin
$5.0
Hard Rock Pin Edmonton guitar pin picture


Lladro Guitar Boy #4614 - Beautiful Piece of Lladro
$109.0
Lladro Guitar Boy #4614 - Beautiful Piece of Lladro picture