Your One-Stop Source For
Music Lyrics
Bass and Guitar Tabs
and More...
Music Lyrics Bass and Guitar Tabs

 

The Tabs Are Below

Learn To Read Tab
Chords Handbook
Corrections & Additions
Get Official Tab
Staind tabs @ 911Tabs

Staind - Safe Place Guitar tab

 

tuning: ab-eb-bb-db-gb-bb

 

intro: play 3 times

 

guitar 1 (w/chorus effect)

|-------------------------------------------------|

|-------------------------------------------------|

|-------------------------------------------------|

|--10------10---10—-8-----------------------------|

|---0-------0----0—-0--------0---0----0---0---0---|

|-------------------------------------------------|

 

after guitar one intro play this once

guitar 2 (w/ distortion)

 

|---------------------|

|---------------------|

|---------------------|

|---------------------|

|--0—-3\6—-6/3—-3—-0--|

|--0—-3\6-—6/3-—3—-0--|

 

play this 3 times

(w/ dist)

|-------------------------------------------|

|-------------------------------------------|

|---------10—-10—-8-------------------------|

|--5/------0---0—-0-------------------------|

|--5/-------------------0—-3\6—-6/3---3—-0--|

|--5/-------------------0—-3\6—-6/3---3—-0--|

 

last time play this

 

|--------------------0--|

|--------------------0--|

|--------------------9--|

|--5-----10----10----8--|

|--5------0-----0----0--|

|--5-----------------0--|

 

verses 1&2(w/ chorus)

 

play 3 times

|-------------------------------------------------|

|-------------------------------------------------|

|-------------------------------------------------|

|--10------10---10—-8-----------------------------|

|---0-------0----0—-0--------0---0----0---0---0---|

|-------------------------------------------------|

 

play only this 4th time

 

 

|----------------------|

|----------------------|

|----------------------|

|--10------10---10—-8--|

|---0-------0----0—-0--|

|----------------------|

 

pre-chorus fill (w/ dist)

 

|---------------------|

|---------------------|

|---------------------|

|---------------------|

|--0—-3\6—-6/3—-3—-0--|

|--0—-3\6-—6/3-—3—-0--|

 

pre-chorus (w/ dist)

 

play whole thing twice

|-----------------------------|

|-----------------------------|

|-----------------------------|

|--5/----------10---10—8------|

|--5/-----------0----0-0------|

|--5/-------------------------|

palm mute

|---------------------------|

|---------------------------|

|---------------------------|

|--0---5--------------5-----|

|--0------0---0----0-----0--|

 

 

 

 

|-----------------------------|

|-----------------------------|

|-----------------------------|

|--5/----------10---10—8------|

|--5/-----------0----0-0------|

|--5/-------------------------|

palm mute

|----------------------------------|

|----------------------------------|

|----------------------------------|

|---0---0----0---0—0---0---0----0--|

|---0---0----0---0—0---0---0----0--|

|----------------------------------|

 

chorus: play 4x

guitar one

|--7---------7------7-----5-------5—0---8---8---7---0--|

|------------------------------------------------------|

|------------------------------------------------------|

|------------------------------------------------------|

|------------------------------------------------------|

|------------------------------------------------------|

 

guitar two

|--------------------------------------------------|

|--------------------------------------------------|

|--------------------------------------------------|

|--10---10-----9—-10-----10-------9---10---10—-10--|

|--10---10----10--10-----10------10--------10—-10--|

|--10---10----10—-10-----10—1-0—-10--------10—-10--|

 

guitar one

|--12------12----15—-17----17---17-x—15—15—12-—12--|

|--------------------------------------------------|

|--------------------------------------------------|

|--------------------------------------------------|

|--------------------------------------------------|

|--------------------------------------------------|

 

guitar two

|-------------------------------------------------------|

|-------------------------------------------------------|

|-------------------------------------------------------|

|--13---------13------12------13----13—-13—-13—-15—-12--|

|--12---------12------12------12----12—-12—-12—-12—-12--|

|--12---------12------12------12----12------12—-12—-12--|

after chorus fill

|--------------------------------|

|--------------------------------|

|--------------------------------|

|--13---------13-----12------13--|

|--12---------12-----12----------|

|--------------------------------|

 

bridge

play 3 ¾ times

|-----------------------------------------------|

|-----------------------------------------------|

|--8---8---8-----8----8-----8---8---------------|

|--8---8---8-----8----8-----8---8---------------|

|--8---8---8-----8----8-----8---8----17-----17--|

 

|---------------------------|

|---------------------------|

|---------------------------|

|---5—-5—-5—-5—-3----6---5--|

|---5—-5—-5—-5—-3----6---5--|

|---5—-5—-5—-5—-3----6---5--|

 

outro:

 

guitar one:

|---------------------------0-------------------------|

|--0---------------------------0----------------------|

|--5---5---4—-5-------5-----------4------5---5—-4—-5--|

|--5---5---5-------------5----------5----5---5—-5-----|

|--0---0---5------0----------------------0---0—-0-----|

|-----------------------------------------------------|

Return to my Staind tabs page

The Tablature is Copyright its respective owners.

Sign Up For My Newsletter
Subscribe | Unsubscribe

Site Map | Disclaimer | Privacy Policy | Media Kit | Submissions/Corrections

Website © 2000-2014 mattsmusicpage.com. All rights reserved.

Legal & DMCA: Matt's Music Page has been providing lyrics and tabs in a legal way, paying royalties each year to a few organizations. Then, all lyrics and tabs were removed from the site. Now, there's a new owner to the site, which purchased it August 26, 2014, and he is in negotiation to obtain licensing from BMI at the moment. If you have a specific DMCA request -- please do not hesitate to contact me via the contact button on top. I will do my very best to keep this site fully legal.

Get our toolbar!