Your One-Stop Source For
Music Lyrics
Bass and Guitar Tabs
and More...
>Music Lyrics Bass and Guitar Tabs

 

The Tabs Are Below

Learn To Read Tab
Chords Handbook
Corrections & Additions
Get Official Tab
Staind tabs @ 911Tabs

Staind - Pressure Guitar tab

 

intro

play this later in the verse

 

e------------------------------------------------------------------------------------

b-----------------------------------------------------------------------------------

g-----------------------------------------------------------------------------------

d--------------5----------------5----------------------5-----------------5---------

a--0-0-0-0--------0-0-0-0-------2---------0-0-0---------0-0-0-0--------2-0--

d--0-0-0-0--------0-0-0-0-------2---------0-0-0---------0-0-0-0--------2-0--

 

chorus ( guitar is using some effect)

------------------------------------------------------------

------------------------------------------------------------

--2-2-2-2------5-5-5-5----------------------------------

--2-2-2-2------5-5-5-5------3-3-3-3--------6-6-6-6--

--0-0-0-0------3-3-3-3------3-3-3-3--------6-6-6-6--

--------------------------------3-3-3-3--------6-6-6-6--

 

play this between the 2nd chorus and the bridge

 

-------------------------------------------------------------------------

------------------------------------------------------------------------

--5-5----5-5-5---5-5-5-----5-5-5—5-5-5--5----5------5-5-5-5-

-----------------------------------------------------------------------

-----------------------------------------------------------------------

-------------------------------------------------------------------------

 

 

bridge

 

--------------------------------------------------------------------------------

--------------------------------------------------------------------------------

-------------------------------------------------------------------------------

2-0-0-0---1-0-0-0---2-0-0-0---1-0-0-0---7-0-0-0---2-0-0-0---1-0-0-0---8-0-0--6-0

2-0-0-0---1-0-0-0---2-0-0-0---1-0-0-0---7-0-0-0---2-0-0-0---1-0-0-0---8-0-0--6-0

2-0-0-0---1-0-0-0---2-0-0-0---1-0-0-0---7-0-0-0---2-0-0-0---1-0-0-0---8-0-0--6-0

Return to my Staind tabs page

The Tablature is Copyright its respective owners.

Sign Up For My Newsletter
Subscribe | Unsubscribe

Site Map | Disclaimer | Privacy Policy | Media Kit | Submissions/Corrections

Website © 2000-2014 mattsmusicpage.com. All rights reserved.

Legal & DMCA: Matt's Music Page has been providing lyrics and tabs in a legal way, paying royalties each year to a few organizations. Then, all lyrics and tabs were removed from the site. Now, there's a new owner to the site, which purchased it August 26, 2014, and he is in negotiation to obtain licensing from BMI at the moment. If you have a specific DMCA request -- please do not hesitate to contact me via the contact button on top. I will do my very best to keep this site fully legal.

Get our toolbar!

 

Music band with squeeze box piano violin drum antique photo
$25.0
Music band with squeeze box piano violin drum antique photo picture


VINTAGE HBG VALENTINE'S DAY POSTCARD BOY DRUM HEARTS
$5.99
VINTAGE HBG VALENTINE'S DAY POSTCARD BOY DRUM HEARTS picture


Mackinac Island Maraca Drum with Bells Souvenir
$7.0
Mackinac Island Maraca Drum with Bells Souvenir picture


Bunny Energizer 22" high complete with drum,flip-flops, Sunglasses, & drumsticks
$24.99
Bunny Energizer 22


Large Raffle Drum For Sale 15 in. x 21 in. Raffle Tickets Prizes Ballot Box NEW
$99.99
Large Raffle Drum For Sale 15 in. x 21 in. Raffle Tickets Prizes Ballot Box NEW  picture