Your One-Stop Source For
Music Lyrics
Bass and Guitar Tabs
and More...
>Music Lyrics Bass and Guitar Tabs

 

The Tabs Are Below

Learn To Read Tab
Chords Handbook
Corrections & Additions
Get Official Tab
Staind tabs @ 911Tabs

Staind - Mudshuvel Guitar tab

 

legend

*=harmonics

p=pull off

h=hammer on

x=scratch

 

intro

eb-----------------------

bb-----------------------

gb-----------------------

db-0-0-0--0000--0--------

ab-0-0-0--0000--0--------

db-0-0-0--0000--0--------

ab-----------------------

 

main riff

harmonics********************

eb---------------------------

bb---------------------------

gb---------------------------

db---------------------------

ab---------------------------

db--5\\\4\\\3\\\2\\\3\\\4\\\5

ab---------------------------

 

chorus

harmonics**

eb-------------------------

bb-------------------------

gb-------------------------

db-------------x-x-x-x-----

ab-------------x-x-x-x-----

db--7-7-7-7----x-x-x-x-----

ab-------------------------

 

fill

eb-----------------------------

bb-----------------------------

gb-----------------------------

db--5h6-x-x-3p2-x-x-2p1-1-1-1-1

ab--5h6-x-x-3p2-x-x-2p1-1-1-1-1

db--5h6-x-x-3p2-x-x-2p1-1-1-1-1

ab-----------------------------

Return to my Staind tabs page

The Tablature is Copyright its respective owners.

Sign Up For My Newsletter
Subscribe | Unsubscribe

Site Map | Disclaimer | Privacy Policy | Media Kit | Submissions/Corrections

Website © 2000-2014 mattsmusicpage.com. All rights reserved.

Legal & DMCA: Matt's Music Page has been providing lyrics and tabs in a legal way, paying royalties each year to a few organizations. Then, all lyrics and tabs were removed from the site. Now, there's a new owner to the site, which purchased it August 26, 2014, and he is in negotiation to obtain licensing from BMI at the moment. If you have a specific DMCA request -- please do not hesitate to contact me via the contact button on top. I will do my very best to keep this site fully legal.

Get our toolbar!

 

SALE Hard Rock Cafe PIN SYDNEY KOALA Band BASS GUITAR PLAYER LE NEW MINT
$18.6
SALE Hard Rock Cafe PIN SYDNEY KOALA Band BASS GUITAR PLAYER LE NEW MINT picture


METALLICA CLIFF BURTON BASS GUITAR SKULL 925 STERLING SILVER ALL RING SIZE
$59.99
METALLICA CLIFF BURTON BASS GUITAR SKULL 925 STERLING SILVER ALL RING SIZE  picture


1978 GUILD B-302 Bass Guitar Makes You Glad You're A Bass Player Vintage Ad
$7.96
1978 GUILD B-302 Bass Guitar Makes You Glad You're A Bass Player Vintage Ad picture


1976 Gibson Ripper Electric Bass Guitar photo "Rip Your Ears Off" promo print ad
$9.99
1976 Gibson Ripper Electric Bass Guitar photo


FENDER PRECISION P BASS GUITAR TIE OR HAT PIN PINBACK
$3.0
FENDER PRECISION P BASS GUITAR TIE OR HAT PIN PINBACK picture