Your One-Stop Source For
Music Lyrics
Bass and Guitar Tabs
and More...
Music Lyrics Bass and Guitar Tabs

 

The Tabs Are Below

Learn To Read Tab
Chords Handbook
Corrections & Additions
Get Official Tab
Staind tabs @ 911Tabs

This is the song that all you people who bought the new album (14 shades of grey)

can download from staind.com in the vip section. I'm 100% possitive on this. And

if anyone that hasn't bought the album and wants this song plz email me at

Gumbi_inc@hotmail.com and I'll be glad to give it to you. Its another sweet Staind song!!

 

 

Verses

 

Eb-----------------------------------|

Bb---3-----3-----3-----3-----3-----3-|

Gb-----0-----0-----------0-----0-----|

Db-----------------------------------|

Ab-2-----2-----2-----3-----3-----3---|

Eb-----------------------------------|

 

Eb-----------------------------------|

Bb---3-----3-----3-----3-----3-----3-|

Gb-----0-----0-----------0-----0-----|

Db-----------------------------------|

Ab-----------------------------------|

Eb-2-----2-----2-----3-----3-----3---|

 

The last time you play it on each verse play it like this.

 

Eb-----------------------------------|

Bb---3-----3-----3-----3-----3-----3-|

Gb-----0-----0-----------0-----0-----|

Db-----------------------------------|

Ab-2-----2-----2-----3-----3-----3---|

Eb-----------------------------------|

 

Eb-------------------3-|

Bb---3-----3-----3---3-|

Gb-----0-----0-------0-|

Db-------------------0-|

Ab-------------------2-|

Eb-2-----2-----2-----3-|

 

 

Chorus

 

G D C Am

Eb-3---2---0---0-|

Bb-3---3---1---0-|

Gb-0---2---0---2-|

Db-0---0---2---2-|

Ab-2---x---3---0-|

Eb-3---x---0---0-|

 

 

 

Theres nothing left Nothing left to hold onto

There is no reason for me to fight anymore

I let it all go It will be easier I know

The weight on my shoulders tells me so

 

So now i stand here to sing another song for you

About the pain i felt before when there was nothing I could do

Now I staind here nothing left to say to you

But if you all could sing along it might help you make it thru

 

I tried to move on Nothing left to hurt me now

I hope its all in the past to stay

Just try to see thru all the fucked up shit we do

And hope that we all don't drift away

 

So now i stand here to sing another song for you

About the pain i felt before when there was nothing I could do

Now I staind here nothing left to say to you

But if you all could sing along it might help you make it thru

 

So let it all out Nothing left to hold on to

There is no reason for me to fight anymore

I let it all go Feel so much better now I know

The weight on my shoulders tells me so

 

So now i stand here to sing another song for you

About the pain i felt before when there was nothing I could do

Now I staind here nothing left to say to you

But if you all could sing along it might help you make it thru

 

Theres nothing left None of its worth holding on to

There is no reason for you to fight anymore

 

 

Return to my Staind tabs page

The Tablature is Copyright its respective owners.

Sign Up For My Newsletter
Subscribe | Unsubscribe

Site Map | Disclaimer | Privacy Policy | Media Kit | Submissions/Corrections

Website © 2000-2014 mattsmusicpage.com. All rights reserved.

Legal & DMCA: Matt's Music Page has been providing lyrics and tabs in a legal way, paying royalties each year to a few organizations. Then, all lyrics and tabs were removed from the site. Now, there's a new owner to the site, which purchased it August 26, 2014, and he is in negotiation to obtain licensing from BMI at the moment. If you have a specific DMCA request -- please do not hesitate to contact me via the contact button on top. I will do my very best to keep this site fully legal.

Get our toolbar!