Your One-Stop Source For
Music Lyrics
Bass and Guitar Tabs
and More...
>Music Lyrics Bass and Guitar Tabs

 

The Tabs Are Below

Learn To Read Tab
Chords Handbook
Corrections & Additions
Get Official Tab
Staind tabs @ 911Tabs

Staind - For You Guitar tab

 

tuning: ab, db, ab, db, gb, bb.

intro/verse/outro riff

bb---------------------------------------------------------

gb---------------------------------------------------------

db---------------------------------------------------------

ab-2h4-xx-2h4-x-2h4-xxx-2h4-xx-2h4-xx-2h4-x-2h4-xxx-4p2-xx-

db-2h4-xx-2h4-x-2h4-xxx-2h4-xx-2h4-xx-2h4-x-2h4-xxx-4p2-xx-

ab---------------------------------------------------------

 

chorus riff

bb------------------------------------------------------

gb------------------------------------------------------

db------------------------------------------------------

ab-------------7----6-----------------------------------

db--11----9----7----6-----------------------------------

ab---9----7---------------------------------------------

 

interlude ("all your insults...but you made me, so do something")

bb-|----6x------|-----2x-----|-----2x-----|-------------

gb-|------------|------------|------------|-------------

db-|-4-4-4-4-44-|-4-4-4-4-44-|-4-4-4-4-44-|-------------

ab-|------------|-4----------|-4-4--------|-------------

db-|------------|-4----------|-4-4--------|-------------

ab-|------------|------------|------------|-------------

|__________| |________| |______|

palm muted p.m. p.m.

 

breakdown

bb------------------------------------------------------

gb------------------------------------------------------

db-4-x-4-x-4-x-2-4-2------------------------------------

ab-4-x-4-x-4-x-2-4-2------------------------------------

db-4-x-4-x-4-x-2-4-2------------------------------------

ab------------------------------------------------------

play the chorus twice and then finish with the outro.

Return to my Staind tabs page

The Tablature is Copyright its respective owners.

Sign Up For My Newsletter
Subscribe | Unsubscribe

Site Map | Disclaimer | Privacy Policy | Media Kit | Submissions/Corrections

Website © 2000-2014 mattsmusicpage.com. All rights reserved.

Legal & DMCA: Matt's Music Page has been providing lyrics and tabs in a legal way, paying royalties each year to a few organizations. Then, all lyrics and tabs were removed from the site. Now, there's a new owner to the site, which purchased it August 26, 2014, and he is in negotiation to obtain licensing from BMI at the moment. If you have a specific DMCA request -- please do not hesitate to contact me via the contact button on top. I will do my very best to keep this site fully legal.

Get our toolbar!

 

Goebel Children of De Grazia "INDIAN BOY WITH DRUM" 7308 Figurine Signed
$59.99
Goebel Children of De Grazia


CLETRAC GENERAL BRAKE DRUM #112256
$19.95
CLETRAC GENERAL BRAKE DRUM #112256 picture


RABBITT BEATING A DRUM, CHILDS HANKIE, 9" BY 9"
$5.0
RABBITT BEATING A DRUM, CHILDS HANKIE,  9


Vintage Ceiling Light Globe Drum Shade White w/Clear Textured Glass Kitchen MCM
$14.99
Vintage Ceiling Light Globe Drum Shade White w/Clear Textured Glass Kitchen MCM picture


Ronnie "I'll Play My Drum For You"~Cherished Teddies #912905 ~ 6CC1/871
$5.0
Ronnie