Your One-Stop Source For
Music Lyrics
Bass and Guitar Tabs
and More...
Music Lyrics Bass and Guitar Tabs

 

The Staind Guitar Tabs Are Below

Learn To Read Tab
Chords Handbook
Corrections & Additions
Get Official Tab
Staind tabs @ 911Tabs

This is my first tab, so it might be a litle weird.

 

 

Intro. I dont know what they do for the first part of the intro, but im sure you're

enough to figure it out.

 

Tunning is a half step down in drop D.

 

Play this 8X for the intro.

 

|-----------------------------------------------------------------|

|-----------------------------------------------------------------|

|-----------------------------------------------------------------|

|---0-00300006666555----------------------------------------------|

|---0-00300006666555----------------------------------------------|

|---0-00300006666555----------------------------------------------|

 

 

This next part for the verses was hard to figure out, and dosent seem quite right, but

you play it with the music it sounds good.

 

 

Verse

 

First part.

 

|-----------------------------------------------------------------|

|-----------------------------------------------------------------|

|-----------------------------------------------------------------|

|-----------------------------------------------------------------|

|--5p0-00-3p0-00-1p0-000000---------------------------------------|

|-----------------------------------------------------------------|

 

 

Second part.

 

This second part looks like a run together mess, but the timeing of how I play it is

fast. So Ive made a second smaller version of this to make sure you know that the 10 isnt a

it goes 12 10 8 7.

 

|-----------------------------------------------------------------|

|-----------------------------------------------------------------|

|-----------------------------------------------------------------|

|--120001000080007000---------------------------------------------|

|-----------------------------------------------------------------|

|-----------------------------------------------------------------|

 

Second smaler version

 

|--12-00010-0008-0007-000-----------------------------------------|

 

Pre-Chorus is the same as the intro.

 

Chorus. This could played many ways, but this is how I play it. Timing may not be tabed

on.

 

 

|-----------------------------------------------------------------|

|-----------------------------------------------------------------|

|-----------------------------------------------------------------|

|--88888888-1010101010101010-7777777777777777---------------------|

|--88888888-1010101010101010-7777777777777777---------------------|

|--88888888-1010101010101010-7777777777777777---------------------|

 

 

Ok, the solo is the same as the last guy who tryed to tab this song, but his only

on it is that its played 1 fret down, so here it is.

 

Im not going to even try to tab the rhythm of the parts inbetween the soloing, but heres

it is in a nutshell.

 

 

|-----------------------------------------------------------------|

|-----------------------------------------------------------------|

|-----------------------------------------------------------------|

|--00000-0000-00000-0000-00000-0000-00000-0000--------------------|

|--00000-0000-00000-0000-00000-0000-00000-0000--------------------|

|--00000-0000-00000-0000-00000-0000-00000-0000--------------------|

 

 

|-----------------------------------------------------|

|-----------------------------------------------------|

|-14---------14---------15----------------------------|

|---15-14-15---15-14-15----15-14-15--12-15-14-15------|

|-----------------------------------------------------|

|-----------------------------------------------------|

 

|-----------------------------------------------------|

|-----------------------------------------------------|

|-14--------15----------------------------------------|

|---15-14-15--15-14-15--12-15-14-15----15-14-15-------|

|-----------------------------------15----------------|

|-----------------------------------------------------|

 

Interlude thingy with all the 0s

 

|-----------------------------------------------------|

|-----------------------------------------------------|

|-14---------15---------14----------------------------|

|---15-14-15---15-14-15----15-14-15--12-15-14-15------|

|-----------------------------------------------------|

|-----------------------------------------------------|

 

|-----------------------------------------------------|

|-----------------------------------------------------|

|-14--------15----------------------------------------|

|---15-14-15--15-14-15--12-15-14-15----15-14-15-------|

|-----------------------------------15----------------|

|-----------------------------------------------------|

 

Interlude thingy.

 

 

|--------------------------------------------------------------------|

|--------------------------------------------------------------------|

|--14--14--15--14--------14--15--14-------14--15--14--15^15^15^15^17-|

|----15--15--15--15-12-15--15--15--15---15--15--15--15---------------|

|-------------------------------------15-----------------------------|

|--------------------------------------------------------------------|

 

Interlude.

 

 

Finish out with the chorus a few times, and then the outro is the same as in the intro.

 

I give all credit of the solo to the guy who first tabed this song, it just wasnt on the

frets. Goodjob who ever you are :P

 

Return to my Staind Guitar Tabs page

The Tablature is Copyright its respective owners.

Sign Up For My Newsletter
Subscribe | Unsubscribe

Site Map | Disclaimer | Privacy Policy | Media Kit | Submissions/Corrections

Website © 2000-2014 mattsmusicpage.com. All rights reserved.

Legal & DMCA: Matt's Music Page has been providing lyrics and tabs in a legal way, paying royalties each year to a few organizations. Then, all lyrics and tabs were removed from the site. Now, there's a new owner to the site, which purchased it August 26, 2014, and he is in negotiation to obtain licensing from BMI at the moment. If you have a specific DMCA request -- please do not hesitate to contact me via the contact button on top. I will do my very best to keep this site fully legal.

Get our toolbar!

 

BRAND NEW KEY OF C HOHNER MINI HARMONICA HARP KEYRING KEYCHAIN KEY RING CHAIN
$8.21
BRAND NEW KEY OF C HOHNER MINI HARMONICA HARP KEYRING KEYCHAIN KEY RING CHAIN picture


RISING SONS BAND *2X3 FRIDGE MAGNET* VOCALS GUITAR MANDOLIN DOBRO HARMONICA SONG
$3.99
RISING SONS BAND *2X3 FRIDGE MAGNET* VOCALS GUITAR MANDOLIN DOBRO HARMONICA SONG picture


Vtg Christmas Angel Baby Girl W Harmonica Boy W Book SET OF 2 W GOLD WINGS
$125.0
Vtg Christmas Angel Baby Girl W Harmonica Boy W Book SET OF 2 W GOLD WINGS  picture


Beautiful Hand Carved Jewelry Trinket Jewelry Box Harmonica Case Bone And Brass
$14.5
Beautiful Hand Carved Jewelry Trinket Jewelry Box Harmonica Case Bone And Brass picture


BRAND NEW* HOHNER BOB DYLAN SIGNATURE LIMITED EDITION HARMONICA COLLECTORS ITEM
$140.19
BRAND NEW* HOHNER BOB DYLAN SIGNATURE LIMITED EDITION HARMONICA COLLECTORS ITEM picture