Your One-Stop Source For
Music Lyrics
Bass and Guitar Tabs
and More...
Music Lyrics Bass and Guitar Tabs

 

The Tabs Are Below

Learn To Read Tab
Chords Handbook
Corrections & Additions
Get Official Tab
Staind tabs @ 911Tabs

Staind

Fade (Live)

 

Break The Cycle

-------------------------------

 

 

Intro:

 

---------------------------------------------------------------------------------------------------------

---------------------------------------------------------------------------------------------------------

---8------8---------------------8-----8---------------------8-----8---------------------8-----8----------

---8------8-----8-------8-------8-----8-----8-------8-------8-----8-----8-------8-------8-----8-----8~---

---6--------------6---6---6---6-6-------------6---6---6---6-6-------------6---6---6---6-6----------------

---6----------------6-------6---6---------------6-------6---6---------------6-------6---6----------------

 

 

---------------------------------------------------------------------------------------------------------

---------------------------------------------------------------------------------------------------------

------------------------------4--------------------------------------------------------------------------

---6--8--8-8-6--6-6-4---4-----4-6-4----------------------------------------------------------------------

---6--8--8-8-6--6-6-4---4-----4-6-4----------------------------------------------------------------------

---6--6--6-6-6--6-6-4---4-------6-4----------------------------------------------------------------------

(4x)

 

Verse:

 

---------------------------------------------------------------------------------------------------------

---------------------------------------------------------------------------------------------------------

---8------8---------------------8-----8---------------------8-----8---------------------8-----8----------

---8------8-----8-------8-------8-----8-----8-------8-------8-----8-----8-------8-------8-----8-----8~---

---6--------------6---6---6---6-6-------------6---6---6---6-6-------------6---6---6---6-6----------------

---6----------------6-------6---6---------------6-------6---6---------------6-------6---6----------------

 

--------------------------------------

--------------------------------------

--------------------------------------

---7--9-9---7-7---5-5-5-5-------------

---7--9-9---7-7---5-5-5-5--2----------

---7--7-7---7-7---5-5-5-5----5-2-5----

(4x)

 

Chorus:

 

---------------------------------------------------------------------------------------------------------

--------------15----------------15-----------------------------------------------------------------------

---------------------15------15----17-15-10------------------12-12-12-12-12-12-12-12-12-12---------------

---10-10-10-----------------------------------13-13-13-13-13-10-10-10-10-10-10-10-10-10-10---------------

---10-10-10-----------------------------------13-13-13-13-13--8--8--8--8--8--8--8--8--8--8---------------

---10-10-10-----------------------------------11-11-11-11-11---------------------------------------------

(4x)

 

Verse:

 

---------------------------------------------------------------------------------------------------------

---------------------------------------------------------------------------------------------------------

---8------8---------------------8-----8---------------------8-----8---------------------8-----8----------

---8------8-----8-------8-------8-----8-----8-------8-------8-----8-----8-------8-------8-----8-----8~---

---6--------------6---6---6---6-6-------------6---6---6---6-6-------------6---6---6---6-6----------------

---6----------------6-------6---6---------------6-------6---6---------------6-------6---6----------------

 

--------------------------------------

--------------------------------------

--------------------------------------

---7--9-9---7-7---5-5-5-5-------------

---7--9-9---7-7---5-5-5-5--2----------

---7--7-7---7-7---5-5-5-5----5-2-5----

(4x)

 

Chorus:

 

---------------------------------------------------------------------------------------------------------

--------------15----------------15-----------------------------------------------------------------------

---------------------15------15----17-15-10------------------12-12-12-12-12-12-12-12-12-12---------------

---10-10-10-----------------------------------13-13-13-13-13-10-10-10-10-10-10-10-10-10-10---------------

---10-10-10-----------------------------------13-13-13-13-13--8--8--8--8--8--8--8--8--8--8---------------

---10-10-10-----------------------------------11-11-11-11-11---------------------------------------------

(4x)

 

Bridge:

 

 

-------------------------

-------------------------

--8--8---11-11----6------

--6--6----9--9----4------

--6--6----9--9----4------

--6--6----9--9----4------

(4x)

 

Chorus:

 

---------------------------------------------------------------------------------------------------------

--------------15----------------15-----------------------------------------------------------------------

---------------------15------15----17-15-10------------------12-12-12-12-12-12-12-12-12-12---------------

---10-10-10-----------------------------------13-13-13-13-13-10-10-10-10-10-10-10-10-10-10---------------

---10-10-10-----------------------------------13-13-13-13-13--8--8--8--8--8--8--8--8--8--8---------------

---10-10-10-----------------------------------11-11-11-11-11---------------------------------------------

(4x)

 

Outro:

 

---------------------------------------------------------------------------------------------------------

---------------------------------------------------------------------------------------------------------

---8------8---------------------8-----8---------------------8-----8---------------------8-----8----------

---8------8-----8-------8-------8-----8-----8-------8-------8-----8-----8-------8-------8-----8-----8~---

---6--------------6---6---6---6-6-------------6---6---6---6-6-------------6---6---6---6-6----------------

---6----------------6-------6---6---------------6-------6---6---------------6-------6---6----------------

 

 

 

Return to my Staind tabs page

The Tablature is Copyright its respective owners.

Sign Up For My Newsletter
Subscribe | Unsubscribe

Site Map | Disclaimer | Privacy Policy | Media Kit | Submissions/Corrections

Website © 2000-2014 mattsmusicpage.com. All rights reserved.

Legal & DMCA: Matt's Music Page has been providing lyrics and tabs in a legal way, paying royalties each year to a few organizations. Then, all lyrics and tabs were removed from the site. Now, there's a new owner to the site, which purchased it August 26, 2014, and he is in negotiation to obtain licensing from BMI at the moment. If you have a specific DMCA request -- please do not hesitate to contact me via the contact button on top. I will do my very best to keep this site fully legal.

Get our toolbar!