Your One-Stop Source For
Music Lyrics
Bass and Guitar Tabs
and More...
Music Lyrics Bass and Guitar Tabs

 

The Tabs Are Below

Learn To Read Tab
Chords Handbook
Corrections & Additions
Get Official Tab
Staind tabs @ 911Tabs

Staind - Epiphany Guitar tab

 

intro/verse/outro – make sure to listen to the song to get rhythm

2x - 2x -

----------------------------|-----------------------------|

-0--0-0--x-----0-0-0-0-0-0--|--0--0-0--x-----0-0-0-0-0-0--|

-7--7-7--x--7--7-7-7-7-7-7--|--7--7-7--x--7--7-7-7-7-7-7--|

-7--7-7--x--7--7-7-7-7-7-7--|--7--7-7--x--7--7-7-7-7-7-7--|

-0--0-0--x--0--0-0-0-0-0-0--|--5--5-5--x--5--5-5-5-5-5-5--|

-0--0-0--x--0--0-0-0-0-0-0--|--5--5-5--x--5--5-5-5-5-5-5--|

 

 

chorus – “cause it’s always raining in my head . . . “

------------------------------------------------------------------------------|

---0--0---0--0--0--0--0--0--0--0------0--0-0-0-0-0-0-0--0-0-0-0-0-0-0-0-0--0--|

-/11-11--11-11-11-11-11-11-11-11------7--7-7-7-7-7-7-7--7-7-7-7-7-7-7-7-7--7--|

-/-9--9---9--9--9--9--9--9--9--9------7--7-7-7-7-7-7-7--7-7-7-7-7-7-7-7-7--7--|

-/-9--9---9--9--9--9--9--9--9--9------5--5-5-5-5-5-5-5--5-5-5-5-5-5-5-5-5--5--|

-/-9--9---9--9--9--9--9--9--9--9------5--5-5-5-5-5-5-5--5-5-5-5-5-5-5-5-5--5--|

Return to my Staind tabs page

The Tablature is Copyright its respective owners.

Sign Up For My Newsletter
Subscribe | Unsubscribe

Site Map | Disclaimer | Privacy Policy | Media Kit | Submissions/Corrections

Website © 2000-2014 mattsmusicpage.com. All rights reserved.

Legal & DMCA: Matt's Music Page has been providing lyrics and tabs in a legal way, paying royalties each year to a few organizations. Then, all lyrics and tabs were removed from the site. Now, there's a new owner to the site, which purchased it August 26, 2014, and he is in negotiation to obtain licensing from BMI at the moment. If you have a specific DMCA request -- please do not hesitate to contact me via the contact button on top. I will do my very best to keep this site fully legal.

Get our toolbar!