Your One-Stop Source For
Music Lyrics
Bass and Guitar Tabs
and More...
Music Lyrics Bass and Guitar Tabs

 

The Tabs Are Below

Learn To Read Tab
Chords Handbook
Corrections & Additions
Get Official Tab
Staind tabs @ 911Tabs

artist: Staind

title: Could It Be

tunning: Eb-Ab-Db-Gb-Bb-Eb

tabber: bassaddict2005

email: iris200682@aol.com

 

I know Mike Mushok uses tunning like Ab-Db-Ab-Db-Gb-Bb, but i'm using my acoustic and i did the best i could w/ just a half step down tunning.

 

 

Intro/Chorus

 

|---------------------------------------------------|

|---------------------------------------------------|

|-------------------------12----12-12-12--12--------|

|--12-12-12-12--12--12----x-----x--x--x---x---------|

|--10-10-10-10--10--10----10----10-10-10--10--------|

|--0--0--0--0---0---0-----0-----0--0--0---0---------|

 

|------------------------------------------|

|------------------------------------------|

|--12-12-12-12-12-12--7-7--7--7--7--7------|

|--9--9--9--9--9--9---5-5--5--5--5--5------|

|--7--7--7--7--7--7---5-5--5--5--5--5------|

|--0--0--0--0--0--0---0-0--0--0--0--0------|

 

 

Verse

 

|---------------------------------------|

|---------------------------------------|

|---------11------------12--------------|

|----7-------7------9------9------------|

|--7---7-------7--9---9------9----------|

|---------------------------------------|

 

Bridge

 

|-----------------------------------------|

|-----------------------------------------|

|-----------------------------------------|

|-12-12-12-12-12-12-12-9-9-9-9-9-9-9-9----|

|-10-10-10-10-10-10-10-7-7-7-7-7-7-7-7----|

|-10-10-10-10-10-10-10-7-7-7-7-7-7-7-7----|

 

|-----------------------------------------|

|-----------------------------------------|

|-----------------------------------------|

|-12-12-12-12-12-12-12-9-9-9-9-9-7-7-7----|

|-10-10-10-10-10-10-10-7-7-7-7-7-5-5-5----|

|-10-10-10-10-10-10-10-7-7-7-7-7-5-5-5----|

 

Return to my Staind tabs page

The Tablature is Copyright its respective owners.

Sign Up For My Newsletter
Subscribe | Unsubscribe

Site Map | Disclaimer | Privacy Policy | Media Kit | Submissions/Corrections

Website © 2000-2014 mattsmusicpage.com. All rights reserved.

Legal & DMCA: Matt's Music Page has been providing lyrics and tabs in a legal way, paying royalties each year to a few organizations. Then, all lyrics and tabs were removed from the site. Now, there's a new owner to the site, which purchased it August 26, 2014, and he is in negotiation to obtain licensing from BMI at the moment. If you have a specific DMCA request -- please do not hesitate to contact me via the contact button on top. I will do my very best to keep this site fully legal.

Get our toolbar!

 

Hard Rock Pin Las Vegas 4th of july red white and blue guitar
$5.0
Hard Rock Pin Las Vegas 4th of july red white and blue guitar picture


Hard Rock Pin Hollywood Fl Bell Girl with dice luggage and guitar
$5.0
Hard Rock Pin Hollywood Fl Bell Girl with dice luggage and guitar picture


Hard Rock Pin Las Vegas King of Clubs Guitar rare only 3 lines of info on back
$5.0
Hard Rock Pin Las Vegas King of Clubs Guitar rare only 3 lines of info on back picture


Hard Rock Pin Edmonton guitar pin
$5.0
Hard Rock Pin Edmonton guitar pin picture


Lladro Guitar Boy #4614 - Beautiful Piece of Lladro
$109.0
Lladro Guitar Boy #4614 - Beautiful Piece of Lladro picture