Your One-Stop Source For
Music Lyrics
Bass and Guitar Tabs
and More...
Music Lyrics Bass and Guitar Tabs

 

The Tabs Are Below

Learn To Read Tab
Chords Handbook
Corrections & Additions
Get Official Tab
Staind tabs @ 911Tabs

Staind - Come Again Guitar tab

b=bend

 

intro ( heavy palm mute ):

 

e|--------------------------|

b|--------------------------|

g|--------------------------|

d|--------------------------|

a|-3-3-3-3-3-3--------------|

e|-1-1-1-1-1-1--------------|

pm............

 

 

chorus:

 

e|--------------------------|

b|--------------------------|

g|--------------------------|

d|--------------------------|

a|-4--6--8--9-7-9--x-x-x-x--|

e|-2--4--6--7-6-7--x-x-x-x--|

 

verse:

 

e|--------------------------|

b|-3---3---3-3-3---3---3b---|

g|-1---1---1-1-1---1---1b---|

d|--------------------------|

a|--------------------------|

e|--------------------------|

(note: let the last chord ring)

 

pre-chorus:

 

e|--------------------------|

b|--------------------------|

g|--------------------------|

d|--------------------------|

a|--x-x-x-x-----------------|

e|--x-x-x-x-----------------|

Return to my Staind tabs page

The Tablature is Copyright its respective owners.

Sign Up For My Newsletter
Subscribe | Unsubscribe

Site Map | Disclaimer | Privacy Policy | Media Kit | Submissions/Corrections

Website © 2000-2014 mattsmusicpage.com. All rights reserved.

Get our toolbar!