Your One-Stop Source For
Music Lyrics
Bass and Guitar Tabs
and More...
Music Lyrics Bass and Guitar Tabs

 

The Tabs Are Below

Learn To Read Tab
Chords Handbook
Corrections & Additions
Get Official Tab
Staind tabs @ 911Tabs

Staind - Change Guitar tab

 

tuning ab, db, ab, db, gb, bb all flat

 

find rythym yourself

intro

1-----------

2-----------

3-5-5-5--3

4-5-5-5--3

5-5-5-5--3

6 -----------

 

verse- phase or flange

1-8----8-------6----6-----8----8-10-8----8

2----7----7\5----5----5/7---7-----------7---

3-----------------------------------------------

4-----------------------------------------------

5-----------------------------------------------

6-----------------------------------------------

 

chorus

1----------------------------------------------

2--------------------------------------------

3--7-7-7----5-7-7-7-7--5\3-0--7\3-0--5\3-0--7\5-5-3

4--5-5-5----3-5-5-5-5--5\3-0--7\3-0--5\3-0--7\5-5-3

5--5-5-5----3-5-5-5-5--5\3-0--7\3-0--5\3-0--7\5-5-3

6--------------------------------------------------

pm .............

 

interlude

1------------------------------

2-----------------------------

3-0-2-0-2-0-2-0-2-0-2-0-2-0-2-3

4-0-2-0-2-0-2-0-2-0-2-0-2-0-2-3

5-0-2-0-2-0-2-0-2-0-2-0-2-0-2-3

6------------------------------

Return to my Staind tabs page

The Tablature is Copyright its respective owners.

Sign Up For My Newsletter
Subscribe | Unsubscribe

Site Map | Disclaimer | Privacy Policy | Media Kit | Submissions/Corrections

Website © 2000-2014 mattsmusicpage.com. All rights reserved.

Legal & DMCA: Matt's Music Page has been providing lyrics and tabs in a legal way, paying royalties each year to a few organizations. Then, all lyrics and tabs were removed from the site. Now, there's a new owner to the site, which purchased it August 26, 2014, and he is in negotiation to obtain licensing from BMI at the moment. If you have a specific DMCA request -- please do not hesitate to contact me via the contact button on top. I will do my very best to keep this site fully legal.

Get our toolbar!