Your One-Stop Source For
Music Lyrics
Bass and Guitar Tabs
and More...
Music Lyrics Bass and Guitar Tabs

 

The Tabs Are Below

Learn To Read Tab
Chords Handbook
Corrections & Additions
Get Official Tab
Staind tabs @ 911Tabs

Staind - Break Guitar tab

 

= - palm mute

x - mute

 

 

intro:

e|-2-----------------2---|

b|-2------------2----2---|

g|-3--3-------3---3--3--3|

d|-4--------4--------4---|

a|-4-----------------4---|

e|-2------2----------2---|

 

 

riff #1:

e---------------------------|

b---------------------------|

g---------------------------|

d---6----6--------6----6----|

a---6----6--------6----6----|

e---4----4--------4----4----|

 

 

riff #2:

e---------------------------|

b---------------------------|

g---------------------------|

d---4----5----4----8--------|

a---4----5----4----8--------|

e---2----3----2----6--------|

= = =

 

 

riff #3:

e---------------------------|

b---------------------------|

g---------------------------|

d---5-4-4-x-5-4-4---6-6-6---|

a---5-4-4-x-5-4-4---6-6-6---|

e---3-2-2-x-3-2-2---4-4-4---|

 

 

riff #4:

e----------------| e----------------|

b----------------| b----------------|

g----------------| g----------------|

d---5-4---5-4-4--| x3 d---5-4--xxxxxx--|

a---5-4---5-4-4--| a---5-4--xxxxxx--|

e---3-2---3-2-2--| e---3-2--xxxxxx--|

 

 

riff #5

e---------------------------|

b---------------------------|

g---------------------------|

d---6----------6----6----5--|

a---6----------6----6----5--|

e---4----------4----4----3--|

 

the order of the riffs:

 

-intro (x2)

-riff #1

-intro (x4)

-riff #1

-intro (x4)

-riff #1 (x1/2) (listen to it, you'll get what i mean by 1/2)

-riff #2

-riff #3 (x4)

-riff #4 (x4)

-riff #5

-riff #3 (x2)

-riff #5

-riff #3 (x2)

-riff #5

-riff #3 (x2)

-riff #5

-riff #3 (x4)

-riff #4 (x4)

-riff #5

-riff #3 (x2)

-riff #5

-riff #3 (x2)

-riff #5

-riff #3 (x2)

-riff #5

-riff #3 (x4)

-riff #4 (x4)

-riff #5

-riff #3 (x2)

 

-riff #5

-riff #3 (x2)

-riff #5

-riff #3 (x2)

-riff #5

-riff #3 (x8)

Return to my Staind tabs page

The Tablature is Copyright its respective owners.

Sign Up For My Newsletter
Subscribe | Unsubscribe

Site Map | Disclaimer | Privacy Policy | Media Kit | Submissions/Corrections

Website © 2000-2014 mattsmusicpage.com. All rights reserved.

Legal & DMCA: Matt's Music Page has been providing lyrics and tabs in a legal way, paying royalties each year to a few organizations. Then, all lyrics and tabs were removed from the site. Now, there's a new owner to the site, which purchased it August 26, 2014, and he is in negotiation to obtain licensing from BMI at the moment. If you have a specific DMCA request -- please do not hesitate to contact me via the contact button on top. I will do my very best to keep this site fully legal.

Get our toolbar!