Your One-Stop Source For
Music Lyrics
Bass and Guitar Tabs
and More...
Music Lyrics Bass and Guitar Tabs

 

The Tabs Are Below

Learn To Read Tab
Chords Handbook
Corrections & Additions
Get Official Tab
Staind tabs @ 911Tabs

Band: Staind

Song: "Open Your Eyes"

Album: 'Break The Cycle'

Tabbed By: Ashley Brown (GreenwichJunkie@aol.com)(4-string)

Dave (DaveRockz14@excite.com)(email for AIM too)

 

Hey... i know the intro's right, someone who has a

5 string help me i want one

 

Intro/Outro

G|--------------------------------------------------|

D|*------------------------------------------------*|

A|*------------------------------------------------*|

E|--------------------------------------------------|

B|-00-00-0000--00-00-0000--00-00-0000--00-00--00000-|

 

Verse

G|---------------------|

D|---------------------|

A|---------------------|

E|-3-4-----1-2-4444-4--|

B|-----1~--------------|

 

Chorus

G|---------------------------|

D|---------------------------|

A|---------------------------|

E|-----------------4444-6666-|

B|-4-4-44-6-6-66~------------|

 

Bridge

G|------------------------|

D|------------------------|

A|---------------4--4--4--|

E|--4--4--4--4--1--1--1---|

B|-2--2--2--2-------------|

 

Ashley's 4 string tab(I could be wrong on some rhythms..)

 

Intro/Outro

G---------------------------|

D--------------------------*|

A--------------------------*|

E--55555555555--rest--------|

 

Verse

G------------------------------|

D-----------------------------*|

A-----------------------------*|

E---3-4-6666--1-2-4444---------|

 

Chorus

G-------------------------------|

D------------------------------*|

A---999--11-11-11--444-666-----*|

E-------------------------------|

 

Bridge

This part comes in around the "You Turn Away" line...

G-------------------------------------|

D-----6---6---6---4---4---4----------*|

A---4---4---4---1---1---1------------*|

E-------------------------------------|

 

Intro

Verse

Chorus

Intro

Verse

Chorus

Bridge

Verse

Chorus

Intro/Outro

 

Return to my Staind bass tabs page

The Tablature is Copyright its respective owners.

Sign Up For My Newsletter
Subscribe | Unsubscribe

Site Map | Disclaimer | Privacy Policy | Media Kit | Submissions/Corrections

Website © 2000-2014 mattsmusicpage.com. All rights reserved.

Legal & DMCA: Matt's Music Page has been providing lyrics and tabs in a legal way, paying royalties each year to a few organizations. Then, all lyrics and tabs were removed from the site. Now, there's a new owner to the site, which purchased it August 26, 2014, and he is in negotiation to obtain licensing from BMI at the moment. If you have a specific DMCA request -- please do not hesitate to contact me via the contact button on top. I will do my very best to keep this site fully legal.

Get our toolbar!