Your One-Stop Source For
Music Lyrics
Bass and Guitar Tabs
and More...
Music Lyrics Bass and Guitar Tabs

 

The Tabs Are Below

Learn To Read Tab
Chords Handbook
Corrections & Additions
Get Official Tab
Staind tabs @ 911Tabs

Song: It's Been Awhile

Band: Staind

>From the Cd Break the Cycle

tabbed by Eric Dellebuur (funkmasterfresh@alloymail.com)

 

Here is the real version of the song. I've seen some close, but I can

assure you this is the real version. You'll need a 5-sting bass and it is

tuned 1 1/2 stps down. Here we go.

 

 

Verse A(1st time)

|-------------------------------------|

|-------------------------------------|

|--------5--------7--7/9--------------|

|---7--------5------------------------|

|-------------------------------------|

 

Verse B (played the rest of the time)

|------------------------------------------|

|------------------------------------------|

|-------------4-5--5-5--5----------7-7-7-7-|

|---7--7-5-7--------------5-5-5-5----------|

|------------------------------------------|

 

Chorus

|---------------------------------------------------|

|---------------------------------------------------|

|---------------------------------------------------|

|--7-7-7-7-7----------------5-5-5-5-5---------------|

|------------3-3-3-3-3-3-3------------5-5-5-5-5-5-5-|

 

Bridge

|-------------------------------------------------|

|-------------------------------------------------|

|-------------------------------------------------|

|---5-5-5-5--------------7---7-------7---7--------|

|-----------5-5-5-5--0-0---0---0-0-0---0---0------|

 

That's it. I haven't put in the timing or order or anything because I'm

tabbing this without my bass handy.But if you listen to the CD you should get

it pretty quick. It's a sweet song from a killer band, have fun playin' it.

 

Questions/Comments E-mail me at funkmasterfresh@alloymail.com

 

Return to my Staind bass tabs page

The Tablature is Copyright its respective owners.

Sign Up For My Newsletter
Subscribe | Unsubscribe

Site Map | Disclaimer | Privacy Policy | Media Kit | Submissions/Corrections

Website © 2000-2014 mattsmusicpage.com. All rights reserved.

Legal & DMCA: Matt's Music Page has been providing lyrics and tabs in a legal way, paying royalties each year to a few organizations. Then, all lyrics and tabs were removed from the site. Now, there's a new owner to the site, which purchased it August 26, 2014, and he is in negotiation to obtain licensing from BMI at the moment. If you have a specific DMCA request -- please do not hesitate to contact me via the contact button on top. I will do my very best to keep this site fully legal.

Get our toolbar!

 

VINTAGE SORRENTO MUSIC JEWELRY BOX
$45.0
VINTAGE SORRENTO MUSIC JEWELRY BOX picture


VINTAGE LACQUERED MUSIC BOX JAPAN
$25.99
VINTAGE LACQUERED MUSIC BOX JAPAN picture


Vintage Kehlsteinhaus Bavaria Germany Colorscope Cow Bell View Master Music Box
$8.99
Vintage Kehlsteinhaus Bavaria Germany Colorscope Cow Bell View Master Music Box picture


VINTAGE SCHMIDT Signed Collectible Musical Turning Clown
$9.99
VINTAGE  SCHMIDT Signed Collectible Musical Turning Clown picture


Vintage - Linen - Postcard - Stage - Radio City Music Hall - New York City
$3.75
Vintage - Linen - Postcard - Stage - Radio City Music Hall - New York City   picture