Your One-Stop Source For
Music Lyrics
Bass and Guitar Tabs
and More...
>Music Lyrics Bass and Guitar Tabs

 

The Tabs Are Below

Learn To Read Tab
Chords Handbook
Corrections & Additions
Get Official Tab
Staind tabs @ 911Tabs

Artist: Staind

Album: Tourmented (track 11)

Tabber: Brent Zimniuch WpBz98182@hotmail.com

 

Tuning: Standard (5 string)

you dont really need the 5 string its only used for 1 note (C#)

 

Verses

g:-------------------------------------------------------|

d:-------------------------------------------------------|

a:--------0-2-4--2-0--2-0------4-2-0-----0---------2----------|

e:-2---2--------------------0-2---------2----0--2---------|

b:-------------------------------------------------------|

 

g:-------------------------------------------------------|

d:-------------------------------------------------------|

a:--------0-2-4--2-0--2-0------4-2-0---------------------|

e:-2---2-------------------0-2---------2--2---0--------|

b:------------------------------------------2------|

 

Chorus (first part of each chorus riff)

g:---------------|

d:---------------|

a:-2--2--2-0------|

e:---------------|

b:---------------|

 

Chorus 1 Variations (first chorus only *in order*)

g:---------2h4p2----|----------4-|----2-1-----|--------2h4p2-2h4p2-------|

d:----2h4--------4-2|----2h4----|--------2-1-|----2h4------------------4-2-|

a:---------------------|-------------|-------------|--------------------------------|

e:---------------------|-------------|-------------|--------------------------------|

b:---------------------|-------------|-------------|--------------------------------|

last variation:

d:----4444

 

Chorus 2 Variations (second chorus *in order*)

g:-----------------|---------4h6p4-2h4p2-|---------4h6p4-----|--------4-2--|

d:----44444-----|----4h6------------------|----4h6--------6-4-|------4-------|

a:-------------|---------------------------|-----------------------2---------|

e:-------------|---------------------------|----------------------|---------------|

b:-------------|---------------------------|----------------------|---------------|

 

 

g:--------4-2---|

d:-2h4~~--------|

a:-------------|

e:-------------|

b:-------------|

 

Bridge

g:-------------9h11p9--11----------------------------------------|

d:------9h11----------------9-9h11-\-7---------------------------|

a:--9-------------------------------------9---7-9-----------0---|

e:---------------------------------------------------7-9---2-----|

b:--------------------------------------------------------------------|

 

g:------------9h11p9--11---------------------------------------|

d:------9h11---------------9-9h11-\-7--------------------------|

a:--9-----------------------------------9---7-9-----------0--|

e:-------------------------------------------------5-7---2----|

b:------------------------------------------------------------------|

 

Chorus 3 Variations ( third chorus only *in order*) no promises here, lots and lots of variations, but this

sounds pretty close if not right on:

g:--------4--4h6p4--------|-----------2h4~--|-----------4h6p4--------|------2-1-|

d:-4h6p4--4---------6-----|--2h4p2---------|--4h6p4---------6---------|--2-1-----|

a:------------------------|-----------------|----------------------|-----------|

e:------------------------|-----------------|----------------------|-----------|

b:------------------------|-----------------|----------------------|-----------|

 

g:-------4--2h4p2------|---------|-------4-2--6-4-|------4-----4----|---------------|

d:--6p4------------4----|--4444-|--6-4------------|-4h6--4h6--------| variation 9---|

a:---------------------|---------|------------------|---------------|same as----|

e:---------------------|---------|------------------|---------------|variation 1--|

b:---------------------|---------|------------------|---------------|---------------|

 

ORDER: Bridge X 3

Rest 4 bars- Verse X 2

Verse X 2 Chorus 3 X 1

Chorus 1 X 1 Bridge X 1

Verse X 3 End on high F# (A: 9)

Chorus 2 X 1

 

 

 

 

 

Return to my Staind bass tabs page

The Tablature is Copyright its respective owners.

Sign Up For My Newsletter
Subscribe | Unsubscribe

Site Map | Disclaimer | Privacy Policy | Media Kit | Submissions/Corrections

Website © 2000-2014 mattsmusicpage.com. All rights reserved.

Legal & DMCA: Matt's Music Page has been providing lyrics and tabs in a legal way, paying royalties each year to a few organizations. Then, all lyrics and tabs were removed from the site. Now, there's a new owner to the site, which purchased it August 26, 2014, and he is in negotiation to obtain licensing from BMI at the moment. If you have a specific DMCA request -- please do not hesitate to contact me via the contact button on top. I will do my very best to keep this site fully legal.

Get our toolbar!

 

1939 LYRIC THEATRE New York PHOTO
$5.83
1939 LYRIC THEATRE New York PHOTO picture


Star Spangled Banner or Marines Hymn lyrics signed by WWII Charles W. Lindberg
$10.0
Star Spangled Banner or Marines Hymn lyrics signed by WWII Charles W. Lindberg picture


OLD LARGE HISTORIC PHOTO OF THE LYRIC THEATRE, SYDNEY c1930s, WAR BONDS BOOTH
$7.42
OLD LARGE HISTORIC PHOTO OF THE LYRIC THEATRE, SYDNEY c1930s, WAR BONDS BOOTH picture


SONG OF REVOLUTION CARD SET WITH 13 MOST FAVORED COMMUNIST SONGS LYRICS + NOTES
$24.99
SONG OF REVOLUTION CARD SET WITH 13 MOST FAVORED COMMUNIST SONGS LYRICS + NOTES picture


OLD LARGE HISTORIC PHOTO OF THE LYRIC THEATRE, SYDNEY c1930s, WAR LOANS BOOTH
$7.42
OLD LARGE HISTORIC PHOTO OF THE LYRIC THEATRE, SYDNEY c1930s, WAR LOANS BOOTH picture