Your One-Stop Source For
Music Lyrics
Bass and Guitar Tabs
and More...
Music Lyrics Bass and Guitar Tabs

 

The Tabs Are Below

Learn To Read Tab
Chords Handbook
Corrections & Additions
Get Official Tab
Staind tabs @ 911Tabs

Author/Artist: staind

Title: for you

Album: break the cycle

Transcribed by: dave monk

Email: milkman43040@hotmail.com

 

turn bass and treble all the way up and mid all the way down to get thr rumbling

sound like in the chorus.

 

tune down 3 steps E

B

F#

C#

G#

 

ignore top line

 

-----------------------------------------------------|------------------------

-----------------------------------------------------|------------------------

-----------------------------------------------------|------------------------

-------------------------4h6-------------------------|--------6---------------

-2h4-44-2h4-4-2h4-44-2h4-----2h4-44-2h4-4-2h4-44-542-|4-444-4-----------7-----

-----------------------------------------------------|----------5-555-5---0---

verse chorus

 

---------------------|--------------------------------------------------------

---------------------|--------------------------------------------------------

---------------------|--------------------------------------------------------

----------------4----|--------------------------------------------------------

--------2-22-46---6--|--------------------------------------------------------

-000-00--------------|--x-x-x-x-xxx-x-x-x-x-xxx-x-x-x-x-xxx-x-x-x-x-xxx-x-x---

bridge

 

------------------------------------------------------------------------------

------------------------------------------------------------------------------

------------------------------------------------------------------------------

------------------------------------------------------------------------------

------------------------------------------------------------------------------

-x-x-xxx-x-x-x-x-xxx-2-x-x-x-xx-2-x-x-22x-x-x-x22--02-02-02-02-0-2-02-02-02---

 

 

--------------------------------------------|---------------------------------

--------------------------------------------|---------------------------------

--------------------------------------------|---------------------------------

--------------------------------------------|---------------------------------

--------------------------------------------|---------------------------------

-02-0-2-02-02-02-02-0-2-02-02-02-02-0-2-----|---------------------------------

thats all

 

------------------------------------------------------------------------------

------------------------------------------------------------------------------

------------------------------------------------------------------------------

------------------------------------------------------------------------------

------------------------------------------------------------------------------

------------------------------------------------------------------------------

 

 

Return to my Staind bass tabs page

The Tablature is Copyright its respective owners.

Sign Up For My Newsletter
Subscribe | Unsubscribe

Site Map | Disclaimer | Privacy Policy | Media Kit | Submissions/Corrections

Website © 2000-2014 mattsmusicpage.com. All rights reserved.

Legal & DMCA: Matt's Music Page has been providing lyrics and tabs in a legal way, paying royalties each year to a few organizations. Then, all lyrics and tabs were removed from the site. Now, there's a new owner to the site, which purchased it August 26, 2014, and he is in negotiation to obtain licensing from BMI at the moment. If you have a specific DMCA request -- please do not hesitate to contact me via the contact button on top. I will do my very best to keep this site fully legal.

Get our toolbar!