Your One-Stop Source For
Music Lyrics
Bass and Guitar Tabs
and More...
Music Lyrics Bass and Guitar Tabs

 

The Tabs Are Below

Learn To Read Tab
Chords Handbook
Corrections & Additions
Get Official Tab
Staind tabs @ 911Tabs

Song: Fade

Artist: Staind

Album: Break The Cycle

Tabbed by: Morgan (bass_guy87@hotmail.com)

Previous Tabs: Morgan (bass_guy87) and Ashley Brown

 

I just listened to the song more carefully and found a few mistakes in the

verse and the bridge. As always, you need a 5 String bass. You can use a

four string tuned to (C,A,D,G) also. If you watch the original video, you

can clearly see the bass close-ups switching from the A string to the B

string in the verse

 

Intro/Verse. Notes are octaves

 

G:----------------------------------------------------------|

D:----------------------------------------------------------|

A:--6-6---6--6-6--6---6-6---4:------------------------------| The : means

E:----------------------------------------------------------| let note ring

B:--------------------------------4-4---4--4-4--4--4-4---2:-|

 

G:----------------------------------------------------------|

D:----------------------------------------------------------|

A:--6-6---6--6-6---6--6-6---4:------------------------------|

C:--------------------------------2-2---2--2-2--2--2-2---0:-|

 

 

Chorus 1:

 

G:-------------------------------------------------|

D:--4-4-4-4-------------2--2--2-2/5-5--------------|

A:-----------4-4-4-4-4----------------4-4-2:-------|

E:-------------------------------------------------|

B:-------------------------------------------------|

 

Chorus 2:

 

G:------------------------------------------------|

D:---4-4-4-4-------------2--2--2-2-3-3------------|

A:------------4-4-4-4-4-----------------4-4-2:----|

E:------------------------------------------------|

B:------------------------------------------------|

 

Bridge:

 

G:------------------------|

D:--2-2--2---4444---------|

A:---------0------4:------|

E:------------------------|

B:------------------------|

 

That's about it. As for the two choruses, play 1 then 2, 1 then 2, 1 then 2,

simple as that. Sorry for any inconvenience. E-mail me at

bass_guy87@hotmail.com. Rock on.

 

Return to my Staind bass tabs page

The Tablature is Copyright its respective owners.

Sign Up For My Newsletter
Subscribe | Unsubscribe

Site Map | Disclaimer | Privacy Policy | Media Kit | Submissions/Corrections

Website © 2000-2014 mattsmusicpage.com. All rights reserved.

Legal & DMCA: Matt's Music Page has been providing lyrics and tabs in a legal way, paying royalties each year to a few organizations. Then, all lyrics and tabs were removed from the site. Now, there's a new owner to the site, which purchased it August 26, 2014, and he is in negotiation to obtain licensing from BMI at the moment. If you have a specific DMCA request -- please do not hesitate to contact me via the contact button on top. I will do my very best to keep this site fully legal.

Get our toolbar!

 

VINTAGE SORRENTO MUSIC JEWELRY BOX
$45.0
VINTAGE SORRENTO MUSIC JEWELRY BOX picture


VINTAGE LACQUERED MUSIC BOX JAPAN
$25.99
VINTAGE LACQUERED MUSIC BOX JAPAN picture


Vintage Kehlsteinhaus Bavaria Germany Colorscope Cow Bell View Master Music Box
$8.99
Vintage Kehlsteinhaus Bavaria Germany Colorscope Cow Bell View Master Music Box picture


VINTAGE SCHMIDT Signed Collectible Musical Turning Clown
$9.99
VINTAGE  SCHMIDT Signed Collectible Musical Turning Clown picture


Vintage - Linen - Postcard - Stage - Radio City Music Hall - New York City
$3.75
Vintage - Linen - Postcard - Stage - Radio City Music Hall - New York City   picture