Your One-Stop Source For
Music Lyrics
Bass and Guitar Tabs
and More...
Music Lyrics Bass and Guitar Tabs

 

The Staind Guitar Tabs Are Below

Learn To Read Tab
Chords Handbook
Corrections & Additions
Get Official Tab
Staind tabs @ 911Tabs

Staind - 4 Walls Guitar Tab

 

standard tuning.

 

intro/verse

 

e|-------------------------|-------------------------|

b|-------------------------|-------------------------|

g|-------------------------|-------------------------|

d|---6h7-------------------|---6h7-------------------|

a|-0-----4h5-0-9------7r0--|-0-----4h5-0-9-------0--7|

e|---------------10r0-----0|---------------10r0------|

 

e|-------------------------|-------------------------|

b|-------------------------|-------------------------|

g|-------------------------|-------------------------|

d|---6h7-------------------|---6h7-------------------|

a|-0-----4h5-0-9------7r0--|-0-----4h5-0-9------0---7|

e|---------------10r0-----0|---------------10r0---0--|

 

repeat this as many times necessary for the song.

 

chorus

 

1 & 2 & 3 & 4 &

e|--9---9--9--7--------|

b|--9---9--9--7--------|

g|-11--11-11--9--------|

d|-11--11-11--9--------|

a|--9---9--9--7--------|

e|---------------------|

 

interlude riff

 

e|-----------|

b|-----------|

g|-9999999p8-|

d|----------9|

a|-----------|

e|-----------|

Return to my Staind Guitar Tabs page

The Tablature is Copyright its respective owners.

Sign Up For My Newsletter
Subscribe | Unsubscribe

Site Map | Disclaimer | Privacy Policy | Media Kit | Submissions/Corrections

Website © 2000-2014 mattsmusicpage.com. All rights reserved.

Get our toolbar!