Your One-Stop Source For
Music Lyrics
Bass and Guitar Tabs
and More...
Music Lyrics Bass and Guitar Tabs

 

The Tabs Are Below

Learn To Read Tab
Chords Handbook
Corrections & Additions
Get Official Tab
Soundgarden tabs @ 911Tabs

Soundgarden-Seasons

-Tuning-FCFACF-

-This is my fave chris cornell tune, its form the singles

soundtrack, its played on an acoustic guitar tuned waaay

down-

-Inlyghtened1-

 

-Intro-

F--0----0-0-0-0-0----0-0-0-0---5/7-5-5-4-4-0---0--

C--0----0-0-0-0-0----0-0-0-0---0-0-0-0-0-0-0---0--

A--3-3\--------------------0---------------0---3--

F--0----3-3-3/9-9\---4-4-4/7---5/7-5-5-4-4-0---0--

C--3-3\--------------------0-------------------3--

F-------3-3-3/9-9\---4-4-4/7----------------------

 

F-------------------------------------------------------------

C-----0----0-----0-----0------------0-----0-----0-------------

A----3----3-----3-----3------------3----3------3------3-------

F-------------------------------------------------------------

C--0----2------------------------0----2-----------------------

F------------3-----3-----3p0-0--------------3-----2h3---2p0-0-

 

 

-Verse-

F----------------------------------------------------------------------

C--0---0--2----2-----0-----0----------0---0--2----2------0-----0-------

A----3-------3-----3-----3--------------3-------3------3-------3-------

F----------------3-----3------3p0-0------------------3-----2/3---2p0-0-

C--0------2---------------------------0------2-------------------------

F----------------3-----3------3p0-0------------------3-----2/3---2p0-0-

 

 

-Chorus-

F--------12---0-0-0--000----------------------------

C-----12------0-0-0--000------0----0----0----0----0-

A--15---------0--------------3----3----3----3----3--

F-------------7-9-11-555----------------------------

C-------------0------------0----2----4--------------

F-------------7-9-11-555------------------5----5----

 

F----------------------------------0-----0-0-

C--000-2b------------------------3-------0-0-

A----------------------------------------0-0-

F---------0h3b-3b-2p0-0---3br0-0---0-3p0-0-0-

C--000-2b-0-0--0--0-0-0---0--0---3-------0-0-

F---------0h3b-3b-2p0-0---3br0-0-----3p0-0-0-

 

 

Return to my to my Soundgarden tabs page

The Tablature is Copyright its respective owners.

Sign Up For My Newsletter
Subscribe | Unsubscribe

Site Map | Disclaimer | Privacy Policy | Media Kit | Submissions/Corrections

Website © 2000-2014 mattsmusicpage.com. All rights reserved.

Legal & DMCA: Matt's Music Page has been providing lyrics and tabs in a legal way, paying royalties each year to a few organizations. Then, all lyrics and tabs were removed from the site. Now, there's a new owner to the site, which purchased it August 26, 2014, and he is in negotiation to obtain licensing from BMI at the moment. If you have a specific DMCA request -- please do not hesitate to contact me via the contact button on top. I will do my very best to keep this site fully legal.

Get our toolbar!

 

® Elvis Presley Figure with Bars & Vinyl Record Stage
$23.99
® Elvis Presley Figure with Bars & Vinyl Record Stage picture


THE LONGINES SYMPHONETTE "SENTIMENTAL JOURNEY" VINTAGE VINYL ALBUM RECORD BOWL
$19.99
 THE LONGINES SYMPHONETTE


African Ghana Medley Vinyl Phono Record Beads (8mm) Ghana
$15.0
African Ghana Medley Vinyl Phono Record Beads (8mm)  Ghana picture


African Yellow Vinyl Phono Record Beads (6mm) Ghana
$12.0
African Yellow Vinyl Phono Record Beads (6mm)  Ghana picture


African Vintage Vinyl Phono Record Beads (7mm - Set of 4) Ghana
$69.0
African Vintage Vinyl Phono Record Beads (7mm - Set of 4)  Ghana picture