Your One-Stop Source For
Music Lyrics
Bass and Guitar Tabs
and More...
>Music Lyrics Bass and Guitar Tabs

 

The Tabs Are Below

Learn To Read Tab
Chords Handbook
Corrections & Additions
Get Official Tab
Soundgarden tabs @ 911Tabs

Outshined

Soungarden

From the album Badmotorfinger

Words and music by Christopher Cornell

Drop 'D' Tuning

Moderately Slow Rock 94 bpm in 7/4 time

Pay attention to the tricky timing. I have not included all the

time signature changes (7/4 is like alternating bars of 4/4 and 3/4)

try to follow the rhythm of the song and it should be relatively easy

to keep up with.

 

 

 

Riff 1

E----------------------------------------|

B----------------------------------------|

G----------------------------------------|

D-P.M.|----------------------------------|

A--0-0-3-5-3-0-3-3~~-6-5-3--\sl.---------|

D--0-0-3-5-3-0-3-----6-5-3--\------------|

 

Riff 1A : 2 Guitars in last 5 beats

E----------------------------------------|

B----------------------------------------|

G-----------------~~--------5+1B--\sl.---|

D-P.M.|----------5+1/2B------------------|

A--0-0-3-5-3-0-3-3~~----6-5-tr~~~~-------|

D--0-0-3-5-3-0-3--------6-5-3(5)---------|

 

Riff 2A

E-----------------------------------|

B-----------------------------------|

G--------10-12-10~~~----------------|

D--12-12-------------12----\sl.-----|

A-----------------------------------|

D-----------------------------------|

 

Riff 2B

E----------------------------------|

B----------------------------------|

G--------10-12-12GB+1/2--10--\sl.--|

D--12-12---------------------------|

A----------------------------------|

D----------------------------------|

 

Riff 2C

E------------------------------------------------|-----------------------|

B----------------------------------sl.12---sl.10-|-----------------------|

G--------10-12-12GB+1/2--10-\sl.-10/12---12\10---|-----------------------|

D--12-12-----------------------------------------|-12~~~~~~~~~~~~--\sl.--|

A------------------------------------------------|-----(fdbk)------------|

D------------------------------------------------|-----------------------|

 

Fill 1 : in 4/4 time (strings 5,6 listed)

A--0-------------|

D--0-------------|

 

Fill 2

E-----------------------------------|

B-----------------------------------|

G----------------------------tr~~~--|

D-P.M.|-----------------QH--3(5)----|

A--0-0-3-5-3-0-3-3~~---(3)5---------|

D--0-0-3-5-3-0-3-----6--------------|

 

Fill 3

E------------------------|---------------|

B------------------------|--7------------|

G---------------------5--|--7------------|

D-P.M.|---------------5--|--7------------|

A--0-0-3-5-3-0-3-3--5----|--5------------|

D--0-0-3-5-3-0-3---------|---------------|

 

Riff 3

E------------|------------------P---|

B--7--7--7---|--7--7------sl.-10^0--|pull-off

G--7--7--7---|--7--7---9--\7--------|optional

D------------|----------------------|3rd time

A--5--5------|--9--9---10-\8--------|of each

D--------5---|----------------------|pre-chorus.

 

Fill 4

E---sl.------sl.----|

B--10/12121212/-----|

G-------------------|

D---7/-9-9-9-9/-----|

A----------------0--|

D----------------0--|

 

Riff 4 : (Strings 5,6 listed)

A--7-5-0-3--5-0--|--5-3-0-3-xx0-3-|--6-6-6-5--3-0--|

D--7-5-0-3--5-0--|--5-3-0-3-xx0-3-|--6-6-6-5--3-0--|

 

Fill 5 : (2 Guitars string 6 listed for both palm mute all)

D--101001010-1010010-10--|

 

D--100010-10--10-10-0-0--|

 

Riff 5 : (Strings 4,5,6 listed)

D--10-10--10-10--10-10--10-10--------|

A--10-10--10-10--10-10--10-10-sl.-sl.|

D--10-10--10-10--10-10--10-10--/19\--|

 

Interlude 1

E----------------|--------------------------------|------------------------sl.-10--|----------H--P----------------------------------------|

B--5----~~~------|--5-7--7+1/2-5-7-75-5-----------|-------------------sl.8-9/10----|---13+1-10^13^10----H--P------------------H-----------|

G--5----~~~-7~~~~|--5-7--7+1/2-5-7-75-5-----------|--------------sl.5-7/9----------|----------------1210^12^10--101212+1-12-10^12-10-12+1-|

D----------------|----------------------7-54-754--|---------QH-4-5/7---------------|--------------------------12--------------------------|

A----------------|-------------------------------5|3~~~~-5-(3)5--------------------|------------------------------------------------------|

D----------------|--------------------------------|--------------------------------|------------------------------------------------------|

 

Interlude 2

E-------------|----------------|---------------|------------------|

B-------------|----------------|---------------|----------6--5----|

G-------------|----------------|--5--7--7--5---|--5--4--5-5--5--7-|

D--7---5--4---|--5--4--7--5-4--|--5--5--5--5---|--5--5--5-5--5--5-|

A--5---5--5---|--5--5--5--5-5--|---------------|------------------|

D-------------|----------------|---------------|------------------|

 

Fill 6

E-----------------------------------|

B-----------------------------------|

G----------------5+1--(R)-+1--------|

D-P.M.|-----------------------3~~~--|

A--0-0-3-5-3-0-3--------------------|

D--0-0-3-5-3-0-3--------------------|

 

Fill 7 : (Strings 4,5,6 1st bar 6/4 2nd bar 5/8)

D--10-10--10-10--10-10--10-10\sl.|------------|

A--10-10--10-10--10-10--10-10\---|--0003--03--|

D--10-10--10-10--10-10--10-10\---|--0003--03--|

 

Fill 8 : (Strings 4,5,6)

D--10-10--10-10--10-10--10-10--\sl.(fdbk)|

A--10-10--10-10--10-10--10-10--\---------|

D--10-10--10-10--10-10--10-10--\---------|

 

Fill 9 : 2 Guitars both on 6th string

D--15\sl.--|

 

D--10\sl.--|

 

Fill 9

Riff 1 3x

Riff 1A

Riff 1 4x

Fill 2

Riff 1 3x

Riff 1 and Fill 3

Fill 1

Riff 3 3x

Fill 4

Riff 4

Fill 5

Riff 4

Fill 5 2x

Riff 5

Interlude 1 with Riff 1 3x then Fill 6

Riffs 1 & 2A

Riffs 1 & 2B

Riffs 1 & 2A

Riff 1 then Riff 1A (omit 4th & 5th string bends) and Riff 2C

Riffs 1 & 2A

Riffs 1 & 2B

Riffs 1 & 2A

Riffs 1 & 2B

Fill 1

Riff 3 3x

Fill 4

Riff 4

Fill 5

Riff 4

Fill 5 2x

Riff 5 (omit ending glissando)

Interlude 2 3x

Riff 3 3x

Fill 4

Riff 4

Fill 5

Riff 4

Fill 5 2x

Fill 7

Riff 4 (omit 1st measure)

Fill 5

Riff 4

Fill 5 2x

Fill 8

THE END.

 

Any questions,comments or requests e-mail me at JR9271. I will

upload the corresponding bassline if you request it, just e-mail

me and let me know. Good luck and God bless.

 

 

 

 

 

Outshined

Soungarden

From the album Badmotorfinger

Words and music by Christopher Cornell

Drop 'D' Tuning

Moderately Slow Rock 94 bpm in 7/4 time

Pay attention to the tricky timing. I have not included all the

time signature changes (7/4 is like alternating bars of 4/4 and 3/4)

try to follow the rhythm of the song and it should be relatively easy

to keep up with.

 

 

 

Riff 1

E----------------------------------------|

B----------------------------------------|

G----------------------------------------|

D-P.M.|----------------------------------|

A--0-0-3-5-3-0-3-3~~-6-5-3--\sl.---------|

D--0-0-3-5-3-0-3-----6-5-3--\------------|

 

Riff 1A : 2 Guitars in last 5 beats

E----------------------------------------|

B----------------------------------------|

G-----------------~~--------5+1B--\sl.---|

D-P.M.|----------5+1/2B------------------|

A--0-0-3-5-3-0-3-3~~----6-5-tr~~~~-------|

D--0-0-3-5-3-0-3--------6-5-3(5)---------|

 

Riff 2A

E-----------------------------------|

B-----------------------------------|

G--------10-12-10~~~----------------|

D--12-12-------------12----\sl.-----|

A-----------------------------------|

D-----------------------------------|

 

Riff 2B

E----------------------------------|

B----------------------------------|

G--------10-12-12GB+1/2--10--\sl.--|

D--12-12---------------------------|

A----------------------------------|

D----------------------------------|

 

Riff 2C

E------------------------------------------------|-----------------------|

B----------------------------------sl.12---sl.10-|-----------------------|

G--------10-12-12GB+1/2--10-\sl.-10/12---12\10---|-----------------------|

D--12-12-----------------------------------------|-12~~~~~~~~~~~~--\sl.--|

A------------------------------------------------|-----(fdbk)------------|

D------------------------------------------------|-----------------------|

 

Fill 1 : in 4/4 time (strings 5,6 listed)

A--0-------------|

D--0-------------|

 

Fill 2

E-----------------------------------|

B-----------------------------------|

G----------------------------tr~~~--|

D-P.M.|-----------------QH--3(5)----|

A--0-0-3-5-3-0-3-3~~---(3)5---------|

D--0-0-3-5-3-0-3-----6--------------|

 

Fill 3

E------------------------|---------------|

B------------------------|--7------------|

G---------------------5--|--7------------|

D-P.M.|---------------5--|--7------------|

A--0-0-3-5-3-0-3-3--5----|--5------------|

D--0-0-3-5-3-0-3---------|---------------|

 

Riff 3

E------------|------------------P---|

B--7--7--7---|--7--7------sl.-10^0--|pull-off

G--7--7--7---|--7--7---9--\7--------|optional

D------------|----------------------|3rd time

A--5--5------|--9--9---10-\8--------|of each

D--------5---|----------------------|pre-chorus.

 

Fill 4

E---sl.------sl.----|

B--10/12121212/-----|

G-------------------|

D---7/-9-9-9-9/-----|

A----------------0--|

D----------------0--|

 

Riff 4 : (Strings 5,6 listed)

A--7-5-0-3--5-0--|--5-3-0-3-xx0-3-|--6-6-6-5--3-0--|

D--7-5-0-3--5-0--|--5-3-0-3-xx0-3-|--6-6-6-5--3-0--|

 

Fill 5 : (2 Guitars string 6 listed for both palm mute all)

D--101001010-1010010-10--|

 

D--100010-10--10-10-0-0--|

 

Riff 5 : (Strings 4,5,6 listed)

D--10-10--10-10--10-10--10-10--------|

A--10-10--10-10--10-10--10-10-sl.-sl.|

D--10-10--10-10--10-10--10-10--/19\--|

 

Interlude 1

E----------------|--------------------------------|------------------------sl.-10--|----------H--P----------------------------------------|

B--5----~~~------|--5-7--7+1/2-5-7-75-5-----------|-------------------sl.8-9/10----|---13+1-10^13^10----H--P------------------H-----------|

G--5----~~~-7~~~~|--5-7--7+1/2-5-7-75-5-----------|--------------sl.5-7/9----------|----------------1210^12^10--101212+1-12-10^12-10-12+1-|

D----------------|----------------------7-54-754--|---------QH-4-5/7---------------|--------------------------12--------------------------|

A----------------|-------------------------------5|3~~~~-5-(3)5--------------------|------------------------------------------------------|

D----------------|--------------------------------|--------------------------------|------------------------------------------------------|

 

Interlude 2

E-------------|----------------|---------------|------------------|

B-------------|----------------|---------------|----------6--5----|

G-------------|----------------|--5--7--7--5---|--5--4--5-5--5--7-|

D--7---5--4---|--5--4--7--5-4--|--5--5--5--5---|--5--5--5-5--5--5-|

A--5---5--5---|--5--5--5--5-5--|---------------|------------------|

D-------------|----------------|---------------|------------------|

 

Fill 6

E-----------------------------------|

B-----------------------------------|

G----------------5+1--(R)-+1--------|

D-P.M.|-----------------------3~~~--|

A--0-0-3-5-3-0-3--------------------|

D--0-0-3-5-3-0-3--------------------|

 

Fill 7 : (Strings 4,5,6 1st bar 6/4 2nd bar 5/8)

D--10-10--10-10--10-10--10-10\sl.|------------|

A--10-10--10-10--10-10--10-10\---|--0003--03--|

D--10-10--10-10--10-10--10-10\---|--0003--03--|

 

Fill 8 : (Strings 4,5,6)

D--10-10--10-10--10-10--10-10--\sl.(fdbk)|

A--10-10--10-10--10-10--10-10--\---------|

D--10-10--10-10--10-10--10-10--\---------|

 

Fill 9 : 2 Guitars both on 6th string

D--15\sl.--|

 

D--10\sl.--|

 

Fill 9

Riff 1 3x

Riff 1A

Riff 1 4x

Fill 2

Riff 1 3x

Riff 1 and Fill 3

Fill 1

Riff 3 3x

Fill 4

Riff 4

Fill 5

Riff 4

Fill 5 2x

Riff 5

Interlude 1 with Riff 1 3x then Fill 6

Riffs 1 & 2A

Riffs 1 & 2B

Riffs 1 & 2A

Riff 1 then Riff 1A (omit 4th & 5th string bends) and Riff 2C

Riffs 1 & 2A

Riffs 1 & 2B

Riffs 1 & 2A

Riffs 1 & 2B

Fill 1

Riff 3 3x

Fill 4

Riff 4

Fill 5

Riff 4

Fill 5 2x

Riff 5 (omit ending glissando)

Interlude 2 3x

Riff 3 3x

Fill 4

Riff 4

Fill 5

Riff 4

Fill 5 2x

Fill 7

Riff 4 (omit 1st measure)

Fill 5

Riff 4

Fill 5 2x

Fill 8

THE END.

 

Any questions,comments or requests e-mail me at JR9271. I will

upload the corresponding bassline if you request it, just e-mail

me and let me know. Good luck and God bless.

 

 

 

 

 

Outshined

Soungarden

From the album Badmotorfinger

Words and music by Christopher Cornell

Drop 'D' Tuning

Moderately Slow Rock 94 bpm in 7/4 time

Pay attention to the tricky timing. I have not included all the

time signature changes (7/4 is like alternating bars of 4/4 and 3/4)

try to follow the rhythm of the song and it should be relatively easy

to keep up with.

 

 

 

Riff 1

E----------------------------------------|

B----------------------------------------|

G----------------------------------------|

D-P.M.|----------------------------------|

A--0-0-3-5-3-0-3-3~~-6-5-3--\sl.---------|

D--0-0-3-5-3-0-3-----6-5-3--\------------|

 

Riff 1A : 2 Guitars in last 5 beats

E----------------------------------------|

B----------------------------------------|

G-----------------~~--------5+1B--\sl.---|

D-P.M.|----------5+1/2B------------------|

A--0-0-3-5-3-0-3-3~~----6-5-tr~~~~-------|

D--0-0-3-5-3-0-3--------6-5-3(5)---------|

 

Riff 2A

E-----------------------------------|

B-----------------------------------|

G--------10-12-10~~~----------------|

D--12-12-------------12----\sl.-----|

A-----------------------------------|

D-----------------------------------|

 

Riff 2B

E----------------------------------|

B----------------------------------|

G--------10-12-12GB+1/2--10--\sl.--|

D--12-12---------------------------|

A----------------------------------|

D----------------------------------|

 

Riff 2C

E------------------------------------------------|-----------------------|

B----------------------------------sl.12---sl.10-|-----------------------|

G--------10-12-12GB+1/2--10-\sl.-10/12---12\10---|-----------------------|

D--12-12-----------------------------------------|-12~~~~~~~~~~~~--\sl.--|

A------------------------------------------------|-----(fdbk)------------|

D------------------------------------------------|-----------------------|

 

Fill 1 : in 4/4 time (strings 5,6 listed)

A--0-------------|

D--0-------------|

 

Fill 2

E-----------------------------------|

B-----------------------------------|

G----------------------------tr~~~--|

D-P.M.|-----------------QH--3(5)----|

A--0-0-3-5-3-0-3-3~~---(3)5---------|

D--0-0-3-5-3-0-3-----6--------------|

 

Fill 3

E------------------------|---------------|

B------------------------|--7------------|

G---------------------5--|--7------------|

D-P.M.|---------------5--|--7------------|

A--0-0-3-5-3-0-3-3--5----|--5------------|

D--0-0-3-5-3-0-3---------|---------------|

 

Riff 3

E------------|------------------P---|

B--7--7--7---|--7--7------sl.-10^0--|pull-off

G--7--7--7---|--7--7---9--\7--------|optional

D------------|----------------------|3rd time

A--5--5------|--9--9---10-\8--------|of each

D--------5---|----------------------|pre-chorus.

 

Fill 4

E---sl.------sl.----|

B--10/12121212/-----|

G-------------------|

D---7/-9-9-9-9/-----|

A----------------0--|

D----------------0--|

 

Riff 4 : (Strings 5,6 listed)

A--7-5-0-3--5-0--|--5-3-0-3-xx0-3-|--6-6-6-5--3-0--|

D--7-5-0-3--5-0--|--5-3-0-3-xx0-3-|--6-6-6-5--3-0--|

 

Fill 5 : (2 Guitars string 6 listed for both palm mute all)

D--101001010-1010010-10--|

 

D--100010-10--10-10-0-0--|

 

Riff 5 : (Strings 4,5,6 listed)

D--10-10--10-10--10-10--10-10--------|

A--10-10--10-10--10-10--10-10-sl.-sl.|

D--10-10--10-10--10-10--10-10--/19\--|

 

Interlude 1

E----------------|--------------------------------|------------------------sl.-10--|----------H--P----------------------------------------|

B--5----~~~------|--5-7--7+1/2-5-7-75-5-----------|-------------------sl.8-9/10----|---13+1-10^13^10----H--P------------------H-----------|

G--5----~~~-7~~~~|--5-7--7+1/2-5-7-75-5-----------|--------------sl.5-7/9----------|----------------1210^12^10--101212+1-12-10^12-10-12+1-|

D----------------|----------------------7-54-754--|---------QH-4-5/7---------------|--------------------------12--------------------------|

A----------------|-------------------------------5|3~~~~-5-(3)5--------------------|------------------------------------------------------|

D----------------|--------------------------------|--------------------------------|------------------------------------------------------|

 

Interlude 2

E-------------|----------------|---------------|------------------|

B-------------|----------------|---------------|----------6--5----|

G-------------|----------------|--5--7--7--5---|--5--4--5-5--5--7-|

D--7---5--4---|--5--4--7--5-4--|--5--5--5--5---|--5--5--5-5--5--5-|

A--5---5--5---|--5--5--5--5-5--|---------------|------------------|

D-------------|----------------|---------------|------------------|

 

Fill 6

E-----------------------------------|

B-----------------------------------|

G----------------5+1--(R)-+1--------|

D-P.M.|-----------------------3~~~--|

A--0-0-3-5-3-0-3--------------------|

D--0-0-3-5-3-0-3--------------------|

 

Fill 7 : (Strings 4,5,6 1st bar 6/4 2nd bar 5/8)

D--10-10--10-10--10-10--10-10\sl.|------------|

A--10-10--10-10--10-10--10-10\---|--0003--03--|

D--10-10--10-10--10-10--10-10\---|--0003--03--|

 

Fill 8 : (Strings 4,5,6)

D--10-10--10-10--10-10--10-10--\sl.(fdbk)|

A--10-10--10-10--10-10--10-10--\---------|

D--10-10--10-10--10-10--10-10--\---------|

 

Fill 9 : 2 Guitars both on 6th string

D--15\sl.--|

 

D--10\sl.--|

 

Fill 9

Riff 1 3x

Riff 1A

Riff 1 4x

Fill 2

Riff 1 3x

Riff 1 and Fill 3

Fill 1

Riff 3 3x

Fill 4

Riff 4

Fill 5

Riff 4

Fill 5 2x

Riff 5

Interlude 1 with Riff 1 3x then Fill 6

Riffs 1 & 2A

Riffs 1 & 2B

Riffs 1 & 2A

Riff 1 then Riff 1A (omit 4th & 5th string bends) and Riff 2C

Riffs 1 & 2A

Riffs 1 & 2B

Riffs 1 & 2A

Riffs 1 & 2B

Fill 1

Riff 3 3x

Fill 4

Riff 4

Fill 5

Riff 4

Fill 5 2x

Riff 5 (omit ending glissando)

Interlude 2 3x

Riff 3 3x

Fill 4

Riff 4

Fill 5

Riff 4

Fill 5 2x

Fill 7

Riff 4 (omit 1st measure)

Fill 5

Riff 4

Fill 5 2x

Fill 8

THE END.

 

Any questions, comments or requests e-mail me at JR9271. I will

upload the corresponding bassline if you request it, just e-mail

me and let me know. Good luck and God bless.

 

 

 

 

 

 

Return to my to my Soundgarden tabs page

The Tablature is Copyright its respective owners.

Sign Up For My Newsletter
Subscribe | Unsubscribe

Site Map | Disclaimer | Privacy Policy | Media Kit | Submissions/Corrections

Website © 2000-2014 mattsmusicpage.com. All rights reserved.

Legal & DMCA: Matt's Music Page has been providing lyrics and tabs in a legal way, paying royalties each year to a few organizations. Then, all lyrics and tabs were removed from the site. Now, there's a new owner to the site, which purchased it August 26, 2014, and he is in negotiation to obtain licensing from BMI at the moment. If you have a specific DMCA request -- please do not hesitate to contact me via the contact button on top. I will do my very best to keep this site fully legal.

Get our toolbar!

 


1970s Vintage Norman Rockwell We've Only Just Begun" Wooden Music Box #324
$
1970s Vintage Norman Rockwell We've Only Just Begun


1970s Vintage Norman Rockwell "Try to Remember"" Wooden Music Box #326
$
1970s Vintage Norman Rockwell


1974 Vintage Norman Rockwell "What The World Needs" Wooden Music Box #325
$
1974 Vintage Norman Rockwell


VINTAGE DISNEY MICKEY MOUSE PLAYING PIANO MUSIC BOX JAPAN - WORKS GREAT
$
VINTAGE DISNEY MICKEY MOUSE PLAYING PIANO MUSIC BOX JAPAN - WORKS GREAT picture


Vintage Musical Instruments Saxophones Horns Some Christmas Ornaments Lot
$
Vintage Musical Instruments Saxophones Horns Some Christmas Ornaments Lot picture


BLUE TIN ALLOY VINTAGE MUSIC BOX : ONCE UPON A DECEMBER ( HAVE VIDEO )
$
BLUE TIN ALLOY VINTAGE  MUSIC BOX :  ONCE UPON A DECEMBER  ( HAVE VIDEO ) picture


Vintage Christmas Ornament Lot Bells Musical Instruments Animals Etc
$
Vintage Christmas Ornament Lot Bells Musical Instruments Animals Etc picture


MTV Vinyl HOLOGRAPHIC STICKER - Vintage Music Television Logo
$
MTV Vinyl HOLOGRAPHIC STICKER - Vintage Music Television Logo  picture


Vintage Music Re-Hairing of Bows Max Möller
$
Vintage Music Re-Hairing of Bows Max Möller picture


rare WALT DISNEY Vintage Sheet Music SAY IT WITH A SLAP / FUN & FANCY FREE 1947
$
rare WALT DISNEY Vintage Sheet Music SAY IT WITH A SLAP / FUN & FANCY FREE 1947 picture